  0
SECTION
  2
HEADER
  9
$ACADVER
  1
AC1018
  9
$ACADMAINTVER
 70
     0
  9
$DWGCODEPAGE
  3
ANSI_1255
  9
$INSBASE
 10
0.0
 20
0.0
 30
0.0
  9
$EXTMIN
 10
1.000000000000000E+20
 20
1.000000000000000E+20
 30
1.000000000000000E+20
  9
$EXTMAX
 10
-1.000000000000000E+20
 20
-1.000000000000000E+20
 30
-1.000000000000000E+20
  9
$LIMMIN
 10
0.0
 20
0.0
  9
$LIMMAX
 10
12.0
 20
9.0
  9
$ORTHOMODE
 70
     0
  9
$REGENMODE
 70
     1
  9
$FILLMODE
 70
     1
  9
$QTEXTMODE
 70
     0
  9
$MIRRTEXT
 70
     1
  9
$LTSCALE
 40
1.0
  9
$ATTMODE
 70
     1
  9
$TEXTSIZE
 40
0.2
  9
$TRACEWID
 40
0.05
  9
$TEXTSTYLE
  7
Standard
  9
$CLAYER
  8
0
  9
$CELTYPE
  6
ByLayer
  9
$CECOLOR
 62
   256
  9
$CELTSCALE
 40
1.0
  9
$DISPSILH
 70
     0
  9
$DIMSCALE
 40
1.0
  9
$DIMASZ
 40
0.18
  9
$DIMEXO
 40
0.0625
  9
$DIMDLI
 40
0.38
  9
$DIMRND
 40
0.0
  9
$DIMDLE
 40
0.0
  9
$DIMEXE
 40
0.18
  9
$DIMTP
 40
0.0
  9
$DIMTM
 40
0.0
  9
$DIMTXT
 40
0.18
  9
$DIMCEN
 40
0.09
  9
$DIMTSZ
 40
0.0
  9
$DIMTOL
 70
     0
  9
$DIMLIM
 70
     0
  9
$DIMTIH
 70
     1
  9
$DIMTOH
 70
     1
  9
$DIMSE1
 70
     0
  9
$DIMSE2
 70
     0
  9
$DIMTAD
 70
     0
  9
$DIMZIN
 70
     0
  9
$DIMBLK
  1

  9
$DIMASO
 70
     1
  9
$DIMSHO
 70
     1
  9
$DIMPOST
  1

  9
$DIMAPOST
  1

  9
$DIMALT
 70
     0
  9
$DIMALTD
 70
     2
  9
$DIMALTF
 40
25.4
  9
$DIMLFAC
 40
1.0
  9
$DIMTOFL
 70
     0
  9
$DIMTVP
 40
0.0
  9
$DIMTIX
 70
     0
  9
$DIMSOXD
 70
     0
  9
$DIMSAH
 70
     0
  9
$DIMBLK1
  1

  9
$DIMBLK2
  1

  9
$DIMSTYLE
  2
Standard
  9
$DIMCLRD
 70
     0
  9
$DIMCLRE
 70
     0
  9
$DIMCLRT
 70
     0
  9
$DIMTFAC
 40
1.0
  9
$DIMGAP
 40
0.09
  9
$DIMJUST
 70
     0
  9
$DIMSD1
 70
     0
  9
$DIMSD2
 70
     0
  9
$DIMTOLJ
 70
     1
  9
$DIMTZIN
 70
     0
  9
$DIMALTZ
 70
     0
  9
$DIMALTTZ
 70
     0
  9
$DIMUPT
 70
     0
  9
$DIMDEC
 70
     4
  9
$DIMTDEC
 70
     4
  9
$DIMALTU
 70
     2
  9
$DIMALTTD
 70
     2
  9
$DIMTXSTY
  7
Standard
  9
$DIMAUNIT
 70
     0
  9
$DIMADEC
 70
     0
  9
$DIMALTRND
 40
0.0
  9
$DIMAZIN
 70
     0
  9
$DIMDSEP
 70
    46
  9
$DIMATFIT
 70
     3
  9
$DIMFRAC
 70
     0
  9
$DIMLDRBLK
  1

  9
$DIMLUNIT
 70
     2
  9
$DIMLWD
 70
    -2
  9
$DIMLWE
 70
    -2
  9
$DIMTMOVE
 70
     0
  9
$LUNITS
 70
     2
  9
$LUPREC
 70
     4
  9
$SKETCHINC
 40
0.1
  9
$FILLETRAD
 40
0.5
  9
$AUNITS
 70
     0
  9
$AUPREC
 70
     0
  9
$MENU
  1
.
  9
$ELEVATION
 40
0.0
  9
$PELEVATION
 40
0.0
  9
$THICKNESS
 40
0.0
  9
$LIMCHECK
 70
     0
  9
$CHAMFERA
 40
0.5
  9
$CHAMFERB
 40
0.5
  9
$CHAMFERC
 40
1.0
  9
$CHAMFERD
 40
0.0
  9
$SKPOLY
 70
     0
  9
$TDCREATE
 40
2456820.789061019
  9
$TDUCREATE
 40
2456820.664061019
  9
$TDUPDATE
 40
2456820.78906103
  9
$TDUUPDATE
 40
2456820.66406103
  9
$TDINDWG
 40
0.0000000116
  9
$TDUSRTIMER
 40
0.0000000116
  9
$USRTIMER
 70
     1
  9
$ANGBASE
 50
0.0
  9
$ANGDIR
 70
     0
  9
$PDMODE
 70
     0
  9
$PDSIZE
 40
0.0
  9
$PLINEWID
 40
0.0
  9
$SPLFRAME
 70
     0
  9
$SPLINETYPE
 70
     6
  9
$SPLINESEGS
 70
     8
  9
$HANDSEED
  5
197
  9
$SURFTAB1
 70
     6
  9
$SURFTAB2
 70
     6
  9
$SURFTYPE
 70
     6
  9
$SURFU
 70
     6
  9
$SURFV
 70
     6
  9
$UCSBASE
  2

  9
$UCSNAME
  2

  9
$UCSORG
 10
0.0
 20
0.0
 30
0.0
  9
$UCSXDIR
 10
1.0
 20
0.0
 30
0.0
  9
$UCSYDIR
 10
0.0
 20
1.0
 30
0.0
  9
$UCSORTHOREF
  2

  9
$UCSORTHOVIEW
 70
     0
  9
$UCSORGTOP
 10
0.0
 20
0.0
 30
0.0
  9
$UCSORGBOTTOM
 10
0.0
 20
0.0
 30
0.0
  9
$UCSORGLEFT
 10
0.0
 20
0.0
 30
0.0
  9
$UCSORGRIGHT
 10
0.0
 20
0.0
 30
0.0
  9
$UCSORGFRONT
 10
0.0
 20
0.0
 30
0.0
  9
$UCSORGBACK
 10
0.0
 20
0.0
 30
0.0
  9
$PUCSBASE
  2

  9
$PUCSNAME
  2

  9
$PUCSORG
 10
0.0
 20
0.0
 30
0.0
  9
$PUCSXDIR
 10
1.0
 20
0.0
 30
0.0
  9
$PUCSYDIR
 10
0.0
 20
1.0
 30
0.0
  9
$PUCSORTHOREF
  2

  9
$PUCSORTHOVIEW
 70
     0
  9
$PUCSORGTOP
 10
0.0
 20
0.0
 30
0.0
  9
$PUCSORGBOTTOM
 10
0.0
 20
0.0
 30
0.0
  9
$PUCSORGLEFT
 10
0.0
 20
0.0
 30
0.0
  9
$PUCSORGRIGHT
 10
0.0
 20
0.0
 30
0.0
  9
$PUCSORGFRONT
 10
0.0
 20
0.0
 30
0.0
  9
$PUCSORGBACK
 10
0.0
 20
0.0
 30
0.0
  9
$USERI1
 70
     0
  9
$USERI2
 70
     0
  9
$USERI3
 70
     0
  9
$USERI4
 70
     0
  9
$USERI5
 70
     0
  9
$USERR1
 40
0.0
  9
$USERR2
 40
0.0
  9
$USERR3
 40
0.0
  9
$USERR4
 40
0.0
  9
$USERR5
 40
0.0
  9
$WORLDVIEW
 70
     1
  9
$SHADEDGE
 70
     3
  9
$SHADEDIF
 70
    70
  9
$TILEMODE
 70
     1
  9
$MAXACTVP
 70
    64
  9
$PINSBASE
 10
0.0
 20
0.0
 30
0.0
  9
$PLIMCHECK
 70
     0
  9
$PEXTMIN
 10
1.000000000000000E+20
 20
1.000000000000000E+20
 30
1.000000000000000E+20
  9
$PEXTMAX
 10
-1.000000000000000E+20
 20
-1.000000000000000E+20
 30
-1.000000000000000E+20
  9
$PLIMMIN
 10
0.0
 20
0.0
  9
$PLIMMAX
 10
12.0
 20
9.0
  9
$UNITMODE
 70
     0
  9
$VISRETAIN
 70
     1
  9
$PLINEGEN
 70
     0
  9
$PSLTSCALE
 70
     1
  9
$TREEDEPTH
 70
  3020
  9
$CMLSTYLE
  2
Standard
  9
$CMLJUST
 70
     0
  9
$CMLSCALE
 40
1.0
  9
$PROXYGRAPHICS
 70
     1
  9
$MEASUREMENT
 70
     0
  9
$CELWEIGHT
370
    -1
  9
$ENDCAPS
280
     0
  9
$JOINSTYLE
280
     0
  9
$LWDISPLAY
290
     1
  9
$INSUNITS
 70
     1
  9
$HYPERLINKBASE
  1

  9
$STYLESHEET
  1

  9
$XEDIT
290
     1
  9
$CEPSNTYPE
380
     0
  9
$PSTYLEMODE
290
     1
  9
$FINGERPRINTGUID
  2
{941A3C81-D0A0-4BCE-9D6F-64FF67AE75D0}
  9
$VERSIONGUID
  2
{FAEB1C32-E019-11D5-929B-00C0DF256EC4}
  9
$EXTNAMES
290
     1
  9
$PSVPSCALE
 40
0.0
  9
$OLESTARTUP
290
     0
  9
$SORTENTS
280
   127
  9
$INDEXCTL
280
     0
  9
$HIDETEXT
280
     1
  9
$XCLIPFRAME
290
     0
  9
$HALOGAP
280
     0
  9
$OBSCOLOR
 70
   257
  9
$OBSLTYPE
280
     0
  9
$INTERSECTIONDISPLAY
280
     0
  9
$INTERSECTIONCOLOR
 70
   257
  9
$DIMASSOC
280
     2
  9
$PROJECTNAME
  1

  0
ENDSEC
  0
SECTION
  2
CLASSES
  0
CLASS
  1
ACDBDICTIONARYWDFLT
  2
AcDbDictionaryWithDefault
  3
ObjectDBX Classes
 90
        0
 91
        3
280
     0
281
     0
  0
CLASS
  1
VISUALSTYLE
  2
AcDbVisualStyle
  3
ObjectDBX Classes
 90
     4095
 91
        3
280
     0
281
     0
  0
ENDSEC
  0
SECTION
  2
TABLES
  0
TABLE
  2
VPORT
  5
8
330
0
100
AcDbSymbolTable
 70
     1
  0
VPORT
  5
29
330
8
100
AcDbSymbolTableRecord
100
AcDbViewportTableRecord
  2
*Active
 70
     0
 10
0.0
 20
0.0
 11
1.0
 21
1.0
 12
0.0
 22
0.0
 13
0.0
 23
0.0
 14
0.5
 24
0.5
 15
0.5
 25
0.5
 16
0.0
 26
0.0
 36
1.0
 17
21.00791666141469
 27
29.70388888146292
 37
0.0
 40
59.40777776292583
 41
0.7072446555819477
 42
50.0
 43
0.0
 44
0.0
 50
0.0
 51
0.0
 71
     0
 72
   100
 73
     1
 74
     3
 75
     0
 76
     0
 77
     0
 78
     0
281
     0
 65
     1
110
0.0
120
0.0
130
0.0
111
1.0
121
0.0
131
0.0
112
0.0
122
1.0
132
0.0
 79
     0
146
0.0
  0
ENDTAB
  0
TABLE
  2
LTYPE
  5
5
330
0
100
AcDbSymbolTable
 70
     1
  0
LTYPE
  5
14
330
5
100
AcDbSymbolTableRecord
100
AcDbLinetypeTableRecord
  2
ByBlock
 70
     0
  3

 72
    65
 73
     0
 40
0.0
  0
LTYPE
  5
15
330
5
100
AcDbSymbolTableRecord
100
AcDbLinetypeTableRecord
  2
ByLayer
 70
     0
  3

 72
    65
 73
     0
 40
0.0
  0
LTYPE
  5
16
330
5
100
AcDbSymbolTableRecord
100
AcDbLinetypeTableRecord
  2
Continuous
 70
     0
  3
Solid line
 72
    65
 73
     0
 40
0.0
  0
ENDTAB
  0
TABLE
  2
LAYER
  5
2
330
0
100
AcDbSymbolTable
 70
     2
  0
LAYER
  5
10
330
2
100
AcDbSymbolTableRecord
100
AcDbLayerTableRecord
  2
0
 70
     0
 62
     7
  6
Continuous
370
    -3
390
F
  0
LAYER
  5
3B
330
2
100
AcDbSymbolTableRecord
100
AcDbLayerTableRecord
  2
Layer 1
 70
     0
 62
     7
  6
Continuous
370
    -3
390
F
  0
ENDTAB
  0
TABLE
  2
STYLE
  5
3
330
0
100
AcDbSymbolTable
 70
     1
  0
STYLE
  5
11
330
3
100
AcDbSymbolTableRecord
100
AcDbTextStyleTableRecord
  2
Standard
 70
     0
 40
0.0
 41
1.0
 50
0.0
 71
     0
 42
0.2
  3
txt
  4

  0
ENDTAB
  0
TABLE
  2
VIEW
  5
6
330
0
100
AcDbSymbolTable
 70
     0
  0
ENDTAB
  0
TABLE
  2
UCS
  5
7
330
0
100
AcDbSymbolTable
 70
     0
  0
ENDTAB
  0
TABLE
  2
APPID
  5
9
330
0
100
AcDbSymbolTable
 70
     1
  0
APPID
  5
12
330
9
100
AcDbSymbolTableRecord
100
AcDbRegAppTableRecord
  2
ACAD
 70
     0
  0
ENDTAB
  0
TABLE
  2
DIMSTYLE
  5
A
330
0
100
AcDbSymbolTable
 70
     1
100
AcDbDimStyleTable
  0
DIMSTYLE
105
27
330
A
100
AcDbSymbolTableRecord
100
AcDbDimStyleTableRecord
  2
Standard
 70
     0
340
11
  0
ENDTAB
  0
TABLE
  2
BLOCK_RECORD
  5
1
330
0
100
AcDbSymbolTable
 70
     2
  0
BLOCK_RECORD
  5
1F
330
1
100
AcDbSymbolTableRecord
100
AcDbBlockTableRecord
  2
*Model_Space
340
22
  0
BLOCK_RECORD
  5
1B
330
1
100
AcDbSymbolTableRecord
100
AcDbBlockTableRecord
  2
*Paper_Space
340
1E
  0
BLOCK_RECORD
  5
23
330
1
100
AcDbSymbolTableRecord
100
AcDbBlockTableRecord
  2
*Paper_Space0
340
26
  0
BLOCK_RECORD
  5
8A
330
1
100
AcDbSymbolTableRecord
100
AcDbBlockTableRecord
  2
block 2
340
0
102
{BLKREFS
331
8B
102
}
  0
ENDTAB
  0
ENDSEC
  0
SECTION
  2
BLOCKS
  0
BLOCK
  5
20
330
1F
100
AcDbEntity
  8
0
100
AcDbBlockBegin
  2
*Model_Space
 70
     0
 71
     0
 10
0.0
 20
0.0
 30
0.0
  3
*Model_Space
  1

  0
ENDBLK
  5
21
330
1F
100
AcDbEntity
  8
0
100
AcDbBlockEnd
  0
BLOCK
  5
1C
330
1B
100
AcDbEntity
 67
     1
  8
0
100
AcDbBlockBegin
  2
*Paper_Space
 70
     0
 71
     0
 10
0.0
 20
0.0
 30
0.0
  3
*Paper_Space
  1

  0
ENDBLK
  5
1D
330
1B
100
AcDbEntity
 67
     1
  8
0
100
AcDbBlockEnd
  0
BLOCK
  5
24
330
23
100
AcDbEntity
  8
0
100
AcDbBlockBegin
  2
*Paper_Space0
 70
     0
 71
     0
 10
0.0
 20
0.0
 30
0.0
  3
*Paper_Space0
  1

  0
ENDBLK
  5
25
330
23
100
AcDbEntity
  8
0
100
AcDbBlockEnd
  0
BLOCK
  5
8C
330
8A
100
AcDbEntity
  8
0
100
AcDbBlockBegin
  2
block 2
 70
     0
 71
     0
 10
0.0
 20
0.0
 30
0.0
  3
block 2
  1

  0
POLYLINE
  5
8E
330
8A
100
AcDbEntity
  8
Layer 1
370
     0
100
AcDb2dPolyline
 66
     1
 10
0.0
 20
0.0
 30
0.0
  0
VERTEX
  5
8F
330
8E
100
AcDbEntity
  8
Layer 1
370
     0
100
AcDbVertex
100
AcDb2dVertex
 10
16.43687784419807
 20
55.77816296348601
 30
0.0
  0
VERTEX
  5
90
330
8E
100
AcDbEntity
  8
Layer 1
370
     0
100
AcDbVertex
100
AcDb2dVertex
 10
16.37526231144438
 20
55.69601466164023
 30
0.0
  0
VERTEX
  5
91
330
8E
100
AcDbEntity
  8
Layer 1
370
     0
100
AcDbVertex
100
AcDb2dVertex
 10
16.29053018798466
 20
55.58046615906495
 30
0.0
  0
SEQEND
  5
92
330
8E
100
AcDbEntity
  8
Layer 1
370
     0
  0
SPLINE
  5
93
330
8A
100
AcDbEntity
  8
Layer 1
370
     0
100
AcDbSpline
210
0.0
220
0.0
230
1.0
 70
     8
 71
     3
 72
     8
 73
     4
 74
     0
 42
0.0000000001
 43
0.0000000001
 40
0.0
 40
0.0
 40
0.0
 40
0.0
 40
1.0
 40
1.0
 40
1.0
 40
1.0
 10
16.28918660074541
 20
55.5826021182658
 30
0.0
 10
16.22782945015311
 20
55.51347627735426
 30
0.0
 10
16.18151014135393
 20
55.43237872963149
 30
0.0
 10
16.15317423098775
 20
55.34442544189306
 30
0.0
  0
POLYLINE
  5
94
330
8A
100
AcDbEntity
  8
Layer 1
370
     0
100
AcDb2dPolyline
 66
     1
 10
0.0
 20
0.0
 30
0.0
  0
VERTEX
  5
95
330
94
100
AcDbEntity
  8
Layer 1
370
     0
100
AcDbVertex
100
AcDb2dVertex
 10
16.15448336727214
 20
55.34427041259622
 30
0.0
  0
VERTEX
  5
96
330
94
100
AcDbEntity
  8
Layer 1
370
     0
100
AcDbVertex
100
AcDb2dVertex
 10
16.02610188401431
 20
54.94632743309501
 30
0.0
  0
VERTEX
  5
97
330
94
100
AcDbEntity
  8
Layer 1
370
     0
100
AcDbVertex
100
AcDb2dVertex
 10
15.15831678223473
 20
52.97457870854455
 30
0.0
  0
VERTEX
  5
98
330
94
100
AcDbEntity
  8
Layer 1
370
     0
100
AcDbVertex
100
AcDb2dVertex
 10
14.55497720990292
 20
51.27495807637396
 30
0.0
  0
SEQEND
  5
99
330
94
100
AcDbEntity
  8
Layer 1
370
     0
  0
SPLINE
  5
9A
330
8A
100
AcDbEntity
  8
Layer 1
370
     0
100
AcDbSpline
210
0.0
220
0.0
230
1.0
 70
     8
 71
     3
 72
     8
 73
     4
 74
     0
 42
0.0000000001
 43
0.0000000001
 40
0.0
 40
0.0
 40
0.0
 40
0.0
 40
1.0
 40
1.0
 40
1.0
 40
1.0
 10
14.55289292713434
 20
51.27592270310983
 30
0.0
 10
14.54362562027902
 20
51.24986055576392
 30
0.0
 10
14.55609686593563
 20
51.22107678298466
 30
0.0
 10
14.58146999418449
 20
51.21001802647701
 30
0.0
  0
POLYLINE
  5
9B
330
8A
100
AcDbEntity
  8
Layer 1
370
     0
100
AcDb2dPolyline
 66
     1
 10
0.0
 20
0.0
 30
0.0
  0
VERTEX
  5
9C
330
9B
100
AcDbEntity
  8
Layer 1
370
     0
100
AcDbVertex
100
AcDb2dVertex
 10
14.58322699288197
 20
51.20822657682468
 30
0.0
  0
VERTEX
  5
9D
330
9B
100
AcDbEntity
  8
Layer 1
370
     0
100
AcDbVertex
100
AcDb2dVertex
 10
14.61915933879312
 20
51.19280977452819
 30
0.0
  0
SEQEND
  5
9E
330
9B
100
AcDbEntity
  8
Layer 1
370
     0
  0
SPLINE
  5
9F
330
8A
100
AcDbEntity
  8
Layer 1
370
     0
100
AcDbSpline
210
0.0
220
0.0
230
1.0
 70
     8
 71
     3
 72
     8
 73
     4
 74
     0
 42
0.0000000001
 43
0.0000000001
 40
0.0
 40
0.0
 40
0.0
 40
0.0
 40
1.0
 40
1.0
 40
1.0
 40
1.0
 10
14.61607597833383
 20
51.1947907044322
 30
0.0
 10
14.6573998986794
 20
51.1768073059992
 30
0.0
 10
14.70194498330368
 20
51.16738496984704
 30
0.0
 10
14.74700683225075
 20
51.16714381316307
 30
0.0
  0
POLYLINE
  5
A0
330
8A
100
AcDbEntity
  8
Layer 1
370
     0
100
AcDb2dPolyline
 66
     1
 10
0.0
 20
0.0
 30
0.0
  0
VERTEX
  5
A1
330
A0
100
AcDbEntity
  8
Layer 1
370
     0
100
AcDbVertex
100
AcDb2dVertex
 10
14.75010741818747
 20
51.16712658768564
 30
0.0
  0
VERTEX
  5
A2
330
A0
100
AcDbEntity
  8
Layer 1
370
     0
100
AcDbVertex
100
AcDb2dVertex
 10
16.01325167785432
 20
51.15944402475354
 30
0.0
  0
VERTEX
  5
A3
330
A0
100
AcDbEntity
  8
Layer 1
370
     0
100
AcDbVertex
100
AcDb2dVertex
 10
16.0081184855813
 20
50.29165892297396
 30
0.0
  0
SEQEND
  5
A4
330
A0
100
AcDbEntity
  8
Layer 1
370
     0
  0
SPLINE
  5
A5
330
8A
100
AcDbEntity
  8
Layer 1
370
     0
100
AcDbSpline
210
0.0
220
0.0
230
1.0
 70
     8
 71
     3
 72
     8
 73
     4
 74
     0
 42
0.0000000001
 43
0.0000000001
 40
0.0
 40
0.0
 40
0.0
 40
0.0
 40
1.0
 40
1.0
 40
1.0
 40
1.0
 10
15.96767306458447
 20
49.79603026098849
 30
0.0
 10
15.99366631002068
 20
49.96122258950622
 30
0.0
 10
16.00715385884543
 20
50.12810301481172
 30
0.0
 10
16.00806680914902
 20
50.2952934987109
 30
0.0
  0
POLYLINE
  5
A6
330
8A
100
AcDbEntity
  8
Layer 1
370
     0
100
AcDb2dPolyline
 66
     1
 10
0.0
 20
0.0
 30
0.0
  0
VERTEX
  5
A7
330
A6
100
AcDbEntity
  8
Layer 1
370
     0
100
AcDbVertex
100
AcDb2dVertex
 10
15.9670357219197
 20
49.79360146867139
 30
0.0
  0
VERTEX
  5
A8
330
A6
100
AcDbEntity
  8
Layer 1
370
     0
100
AcDbVertex
100
AcDb2dVertex
 10
15.89258720848345
 20
49.31862615411999
 30
0.0
  0
VERTEX
  5
A9
330
A6
100
AcDbEntity
  8
Layer 1
370
     0
100
AcDbVertex
100
AcDb2dVertex
 10
15.72572400865537
 20
48.71013616403774
 30
0.0
  0
SEQEND
  5
AA
330
A6
100
AcDbEntity
  8
Layer 1
370
     0
  0
SPLINE
  5
AB
330
8A
100
AcDbEntity
  8
Layer 1
370
     0
100
AcDbSpline
210
0.0
220
0.0
230
1.0
 70
     8
 71
     3
 72
     8
 73
     4
 74
     0
 42
0.0000000001
 43
0.0000000001
 40
0.0
 40
0.0
 40
0.0
 40
0.0
 40
1.0
 40
1.0
 40
1.0
 40
1.0
 10
15.67198051908548
 20
48.57539847960962
 30
0.0
 10
15.69464924737842
 20
48.61842772222039
 30
0.0
 10
15.71256374390172
 20
48.66379962976113
 30
0.0
 10
15.725345048152
 20
48.71072183027023
 30
0.0
  0
POLYLINE
  5
AC
330
8A
100
AcDbEntity
  8
Layer 1
370
     0
100
AcDb2dPolyline
 66
     1
 10
0.0
 20
0.0
 30
0.0
  0
VERTEX
  5
AD
330
AC
100
AcDbEntity
  8
Layer 1
370
     0
100
AcDbVertex
100
AcDb2dVertex
 10
15.67179103883379
 20
48.57408934332523
 30
0.0
  0
VERTEX
  5
AE
330
AC
100
AcDbEntity
  8
Layer 1
370
     0
100
AcDbVertex
100
AcDb2dVertex
 10
15.6512582697417
 20
48.53557317580013
 30
0.0
  0
SEQEND
  5
AF
330
AC
100
AcDbEntity
  8
Layer 1
370
     0
  0
SPLINE
  5
B0
330
8A
100
AcDbEntity
  8
Layer 1
370
     0
100
AcDbSpline
210
0.0
220
0.0
230
1.0
 70
     8
 71
     3
 72
     8
 73
     4
 74
     0
 42
0.0000000001
 43
0.0000000001
 40
0.0
 40
0.0
 40
0.0
 40
0.0
 40
1.0
 40
1.0
 40
1.0
 40
1.0
 10
15.39514987136823
 20
48.27054198011986
 30
0.0
 10
15.50399766322469
 20
48.33334607081596
 30
0.0
 10
15.59282945031186
 20
48.42570908077551
 30
0.0
 10
15.65144774999339
 20
48.53688231208453
 30
0.0
  0
POLYLINE
  5
B1
330
8A
100
AcDbEntity
  8
Layer 1
370
     0
100
AcDb2dPolyline
 66
     1
 10
0.0
 20
0.0
 30
0.0
  0
VERTEX
  5
B2
330
B1
100
AcDbEntity
  8
Layer 1
370
     0
100
AcDbVertex
100
AcDb2dVertex
 10
15.39707912483997
 20
48.26857827569327
 30
0.0
  0
VERTEX
  5
B3
330
B1
100
AcDbEntity
  8
Layer 1
370
     0
100
AcDbVertex
100
AcDb2dVertex
 10
15.34061400983672
 20
48.23516084948635
 30
0.0
  0
VERTEX
  5
B4
330
B1
100
AcDbEntity
  8
Layer 1
370
     0
100
AcDbVertex
100
AcDb2dVertex
 10
14.99143635692922
 20
48.11192978397896
 30
0.0
  0
SEQEND
  5
B5
330
B1
100
AcDbEntity
  8
Layer 1
370
     0
  0
POLYLINE
  5
B6
330
8A
100
AcDbEntity
  8
Layer 1
370
     0
100
AcDb2dPolyline
 66
     1
 10
0.0
 20
0.0
 30
0.0
  0
VERTEX
  5
B7
330
B6
100
AcDbEntity
  8
Layer 1
370
     0
100
AcDbVertex
100
AcDb2dVertex
 10
14.78605698957605
 20
48.00154892463156
 30
0.0
  0
VERTEX
  5
184
330
B6
100
AcDbEntity
  8
0
100
AcDbVertex
100
AcDb2dVertex
 10
14.78605698957605
 20
48.00154892463156
 30
0.0
  0
SEQEND
  5
B8
330
B6
100
AcDbEntity
  8
Layer 1
370
     0
  0
POLYLINE
  5
B9
330
8A
100
AcDbEntity
  8
Layer 1
370
     0
100
AcDb2dPolyline
 66
     1
 10
0.0
 20
0.0
 30
0.0
  0
VERTEX
  5
BA
330
B9
100
AcDbEntity
  8
Layer 1
370
     0
100
AcDbVertex
100
AcDb2dVertex
 10
14.78507513736276
 20
48.00137666985729
 30
0.0
  0
VERTEX
  5
185
330
B9
100
AcDbEntity
  8
0
100
AcDbVertex
100
AcDb2dVertex
 10
14.78507513736276
 20
48.00137666985729
 30
0.0
  0
SEQEND
  5
BB
330
B9
100
AcDbEntity
  8
Layer 1
370
     0
  0
POLYLINE
  5
BC
330
8A
100
AcDbEntity
  8
Layer 1
370
     0
100
AcDb2dPolyline
 66
     1
 10
0.0
 20
0.0
 30
0.0
  0
VERTEX
  5
BD
330
BC
100
AcDbEntity
  8
Layer 1
370
     0
100
AcDbVertex
100
AcDb2dVertex
 10
18.34957763213135
 20
47.9732991416525
 30
0.0
  0
VERTEX
  5
186
330
BC
100
AcDbEntity
  8
0
100
AcDbVertex
100
AcDb2dVertex
 10
18.34957763213135
 20
47.9732991416525
 30
0.0
  0
SEQEND
  5
BE
330
BC
100
AcDbEntity
  8
Layer 1
370
     0
  0
POLYLINE
  5
BF
330
8A
100
AcDbEntity
  8
Layer 1
370
     0
100
AcDb2dPolyline
 66
     1
 10
0.0
 20
0.0
 30
0.0
  0
VERTEX
  5
C0
330
BF
100
AcDbEntity
  8
Layer 1
370
     0
100
AcDbVertex
100
AcDb2dVertex
 10
18.33259331138907
 20
48.00137666985729
 30
0.0
  0
VERTEX
  5
187
330
BF
100
AcDbEntity
  8
0
100
AcDbVertex
100
AcDb2dVertex
 10
18.33259331138907
 20
48.00137666985729
 30
0.0
  0
SEQEND
  5
C1
330
BF
100
AcDbEntity
  8
Layer 1
370
     0
  0
POLYLINE
  5
C2
330
8A
100
AcDbEntity
  8
Layer 1
370
     0
100
AcDb2dPolyline
 66
     1
 10
0.0
 20
0.0
 30
0.0
  0
VERTEX
  5
C3
330
C2
100
AcDbEntity
  8
Layer 1
370
     0
100
AcDbVertex
100
AcDb2dVertex
 10
18.3367446514488
 20
48.00154892463156
 30
0.0
  0
VERTEX
  5
C4
330
C2
100
AcDbEntity
  8
Layer 1
370
     0
100
AcDbVertex
100
AcDb2dVertex
 10
18.27767848935419
 20
48.04006509215665
 30
0.0
  0
SEQEND
  5
C5
330
C2
100
AcDbEntity
  8
Layer 1
370
     0
  0
SPLINE
  5
C6
330
8A
100
AcDbEntity
  8
Layer 1
370
     0
100
AcDbSpline
210
0.0
220
0.0
230
1.0
 70
     8
 71
     3
 72
     8
 73
     4
 74
     0
 42
0.0000000001
 43
0.0000000001
 40
0.0
 40
0.0
 40
0.0
 40
0.0
 40
1.0
 40
1.0
 40
1.0
 40
1.0
 10
18.28107190840716
 20
48.03882485778195
 30
0.0
 10
18.23576890277613
 20
48.06872828659392
 30
0.0
 10
18.16910630513654
 20
48.09969969500632
 30
0.0
 10
18.11792941170316
 20
48.11771754439417
 30
0.0
  0
POLYLINE
  5
C7
330
8A
100
AcDbEntity
  8
Layer 1
370
     0
100
AcDb2dPolyline
 66
     1
 10
0.0
 20
0.0
 30
0.0
  0
VERTEX
  5
C8
330
C7
100
AcDbEntity
  8
Layer 1
370
     0
100
AcDbVertex
100
AcDb2dVertex
 10
18.1313480586182
 20
48.11192978397896
 30
0.0
  0
VERTEX
  5
C9
330
C7
100
AcDbEntity
  8
Layer 1
370
     0
100
AcDbVertex
100
AcDb2dVertex
 10
17.7821704057107
 20
48.23516084948635
 30
0.0
  0
VERTEX
  5
CA
330
C7
100
AcDbEntity
  8
Layer 1
370
     0
100
AcDbVertex
100
AcDb2dVertex
 10
17.72570529070746
 20
48.26857827569327
 30
0.0
  0
SEQEND
  5
CB
330
C7
100
AcDbEntity
  8
Layer 1
370
     0
  0
SPLINE
  5
CC
330
8A
100
AcDbEntity
  8
Layer 1
370
     0
100
AcDbSpline
210
0.0
220
0.0
230
1.0
 70
     8
 71
     3
 72
     8
 73
     4
 74
     0
 42
0.0000000001
 43
0.0000000001
 40
0.0
 40
0.0
 40
0.0
 40
0.0
 40
1.0
 40
1.0
 40
1.0
 40
1.0
 10
17.46878729489496
 20
48.53688231208453
 30
0.0
 10
17.52738836909905
 20
48.42570908077551
 30
0.0
 10
17.61623738166365
 20
48.33334607081596
 30
0.0
 10
17.72506794804269
 20
48.27054198011986
 30
0.0
  0
POLYLINE
  5
CD
330
8A
100
AcDbEntity
  8
Layer 1
370
     0
100
AcDb2dPolyline
 66
     1
 10
0.0
 20
0.0
 30
0.0
  0
VERTEX
  5
CE
330
CD
100
AcDbEntity
  8
Layer 1
370
     0
100
AcDbVertex
100
AcDb2dVertex
 10
17.46895954966922
 20
48.53557317580013
 30
0.0
  0
VERTEX
  5
CF
330
CD
100
AcDbEntity
  8
Layer 1
370
     0
100
AcDbVertex
100
AcDb2dVertex
 10
17.44842678057713
 20
48.57408934332523
 30
0.0
  0
SEQEND
  5
D0
330
CD
100
AcDbEntity
  8
Layer 1
370
     0
  0
SPLINE
  5
D1
330
8A
100
AcDbEntity
  8
Layer 1
370
     0
100
AcDbSpline
210
0.0
220
0.0
230
1.0
 70
     8
 71
     3
 72
     8
 73
     4
 74
     0
 42
0.0000000001
 43
0.0000000001
 40
0.0
 40
0.0
 40
0.0
 40
0.0
 40
1.0
 40
1.0
 40
1.0
 40
1.0
 10
17.39487277125892
 20
48.71072183027023
 30
0.0
 10
17.40768852646405
 20
48.66379962976113
 30
0.0
 10
17.4255685720325
 20
48.61842772222039
 30
0.0
 10
17.44825452580287
 20
48.57539847960962
 30
0.0
  0
POLYLINE
  5
D2
330
8A
100
AcDbEntity
  8
Layer 1
370
     0
100
AcDb2dPolyline
 66
     1
 10
0.0
 20
0.0
 30
0.0
  0
VERTEX
  5
D3
330
D2
100
AcDbEntity
  8
Layer 1
370
     0
100
AcDbVertex
100
AcDb2dVertex
 10
17.39451103623297
 20
48.71013616403774
 30
0.0
  0
VERTEX
  5
D4
330
D2
100
AcDbEntity
  8
Layer 1
370
     0
100
AcDbVertex
100
AcDb2dVertex
 10
17.23019720706398
 20
49.31862615411999
 30
0.0
  0
VERTEX
  5
D5
330
D2
100
AcDbEntity
  8
Layer 1
370
     0
100
AcDbVertex
100
AcDb2dVertex
 10
17.15574869362773
 20
49.79360146867139
 30
0.0
  0
SEQEND
  5
D6
330
D2
100
AcDbEntity
  8
Layer 1
370
     0
  0
SPLINE
  5
D7
330
8A
100
AcDbEntity
  8
Layer 1
370
     0
100
AcDbSpline
210
0.0
220
0.0
230
1.0
 70
     8
 71
     3
 72
     8
 73
     4
 74
     0
 42
0.0000000001
 43
0.0000000001
 40
0.0
 40
0.0
 40
0.0
 40
0.0
 40
1.0
 40
1.0
 40
1.0
 40
1.0
 10
17.11215101026189
 20
50.2952934987109
 30
0.0
 10
17.11306396056548
 20
50.12810301481172
 30
0.0
 10
17.12658596034509
 20
49.96122258950622
 30
0.0
 10
17.15256198030387
 20
49.79603026098849
 30
0.0
  0
POLYLINE
  5
D8
330
8A
100
AcDbEntity
  8
Layer 1
370
     0
100
AcDb2dPolyline
 66
     1
 10
0.0
 20
0.0
 30
0.0
  0
VERTEX
  5
D9
330
D8
100
AcDbEntity
  8
Layer 1
370
     0
100
AcDbVertex
100
AcDb2dVertex
 10
17.11466592996612
 20
50.29165892297396
 30
0.0
  0
VERTEX
  5
DA
330
D8
100
AcDbEntity
  8
Layer 1
370
     0
100
AcDbVertex
100
AcDb2dVertex
 10
17.1095327376931
 20
51.15944402475354
 30
0.0
  0
VERTEX
  5
DB
330
D8
100
AcDbEntity
  8
Layer 1
370
     0
100
AcDbVertex
100
AcDb2dVertex
 10
18.37269422283738
 20
51.16712658768564
 30
0.0
  0
SEQEND
  5
DC
330
D8
100
AcDbEntity
  8
Layer 1
370
     0
  0
SPLINE
  5
DD
330
8A
100
AcDbEntity
  8
Layer 1
370
     0
100
AcDbSpline
210
0.0
220
0.0
230
1.0
 70
     8
 71
     3
 72
     8
 73
     4
 74
     0
 42
0.0000000001
 43
0.0000000001
 40
0.0
 40
0.0
 40
0.0
 40
0.0
 40
1.0
 40
1.0
 40
1.0
 40
1.0
 10
18.37066161650108
 20
51.16714381316307
 30
0.0
 10
18.41570623997072
 20
51.16738496984704
 30
0.0
 10
18.46026855007243
 20
51.1768073059992
 30
0.0
 10
18.50157524494058
 20
51.1947907044322
 30
0.0
  0
POLYLINE
  5
DE
330
8A
100
AcDbEntity
  8
Layer 1
370
     0
100
AcDb2dPolyline
 66
     1
 10
0.0
 20
0.0
 30
0.0
  0
VERTEX
  5
DF
330
DE
100
AcDbEntity
  8
Layer 1
370
     0
100
AcDbVertex
100
AcDb2dVertex
 10
18.5036250767543
 20
51.19280977452819
 30
0.0
  0
VERTEX
  5
E0
330
DE
100
AcDbEntity
  8
Layer 1
370
     0
100
AcDbVertex
100
AcDb2dVertex
 10
18.53699082652895
 20
51.20822657682468
 30
0.0
  0
SEQEND
  5
E1
330
DE
100
AcDbEntity
  8
Layer 1
370
     0
  0
SPLINE
  5
E2
330
8A
100
AcDbEntity
  8
Layer 1
370
     0
100
AcDbSpline
210
0.0
220
0.0
230
1.0
 70
     8
 71
     3
 72
     8
 73
     4
 74
     0
 42
0.0000000001
 43
0.0000000001
 40
0.0
 40
0.0
 40
0.0
 40
0.0
 40
1.0
 40
1.0
 40
1.0
 40
1.0
 10
18.53618122908991
 20
51.21001802647701
 30
0.0
 10
18.56153713186135
 20
51.22107678298466
 30
0.0
 10
18.57404282847281
 20
51.24986055576392
 30
0.0
 10
18.56475829614006
 20
51.27592270310983
 30
0.0
  0
POLYLINE
  5
E3
330
8A
100
AcDbEntity
  8
Layer 1
370
     0
100
AcDb2dPolyline
 66
     1
 10
0.0
 20
0.0
 30
0.0
  0
VERTEX
  5
E4
330
E3
100
AcDbEntity
  8
Layer 1
370
     0
100
AcDbVertex
100
AcDb2dVertex
 10
18.56780720564451
 20
51.27495807637396
 30
0.0
  0
VERTEX
  5
E5
330
E3
100
AcDbEntity
  8
Layer 1
370
     0
100
AcDbVertex
100
AcDb2dVertex
 10
17.96190103717619
 20
52.97457870854455
 30
0.0
  0
VERTEX
  5
E6
330
E3
100
AcDbEntity
  8
Layer 1
370
     0
100
AcDbVertex
100
AcDb2dVertex
 10
17.09413316087403
 20
54.94632743309501
 30
0.0
  0
VERTEX
  5
E7
330
E3
100
AcDbEntity
  8
Layer 1
370
     0
100
AcDbVertex
100
AcDb2dVertex
 10
16.96576890309363
 20
55.34427041259622
 30
0.0
  0
SEQEND
  5
E8
330
E3
100
AcDbEntity
  8
Layer 1
370
     0
  0
SPLINE
  5
E9
330
8A
100
AcDbEntity
  8
Layer 1
370
     0
100
AcDbSpline
210
0.0
220
0.0
230
1.0
 70
     8
 71
     3
 72
     8
 73
     4
 74
     0
 42
0.0000000001
 43
0.0000000001
 40
0.0
 40
0.0
 40
0.0
 40
0.0
 40
1.0
 40
1.0
 40
1.0
 40
1.0
 10
16.96704358842317
 20
55.34447711832534
 30
0.0
 10
16.93869045257956
 20
55.43244763154119
 30
0.0
 10
16.89237114378038
 20
55.51354517926397
 30
0.0
 10
16.83097954223323
 20
55.58263656922065
 30
0.0
  0
POLYLINE
  5
EA
330
8A
100
AcDbEntity
  8
Layer 1
370
     0
100
AcDb2dPolyline
 66
     1
 10
0.0
 20
0.0
 30
0.0
  0
VERTEX
  5
EB
330
EA
100
AcDbEntity
  8
Layer 1
370
     0
100
AcDbVertex
100
AcDb2dVertex
 10
16.56012613518288
 20
55.93221040810896
 30
0.0
  0
VERTEX
  5
EC
330
EA
100
AcDbEntity
  8
Layer 1
370
     0
100
AcDbVertex
100
AcDb2dVertex
 10
16.43687784419807
 20
55.77816296348601
 30
0.0
  0
SEQEND
  5
ED
330
EA
100
AcDbEntity
  8
Layer 1
370
     0
  0
POLYLINE
  5
EE
330
8A
100
AcDbEntity
  8
Layer 1
370
     0
100
AcDb2dPolyline
 66
     1
 10
0.0
 20
0.0
 30
0.0
  0
VERTEX
  5
EF
330
EE
100
AcDbEntity
  8
Layer 1
370
     0
100
AcDbVertex
100
AcDb2dVertex
 10
16.82968763142626
 20
55.58046615906495
 30
0.0
  0
VERTEX
  5
F0
330
EE
100
AcDbEntity
  8
Layer 1
370
     0
100
AcDbVertex
100
AcDb2dVertex
 10
16.77063869480908
 20
55.66776487866118
 30
0.0
  0
VERTEX
  5
F1
330
EE
100
AcDbEntity
  8
Layer 1
370
     0
100
AcDbVertex
100
AcDb2dVertex
 10
16.70388996978236
 20
55.76019679053044
 30
0.0
  0
VERTEX
  5
F2
330
EE
100
AcDbEntity
  8
Layer 1
370
     0
100
AcDbVertex
100
AcDb2dVertex
 10
16.56012613518288
 20
55.93221040810896
 30
0.0
  0
SEQEND
  5
F3
330
EE
100
AcDbEntity
  8
Layer 1
370
     0
  0
POLYLINE
  5
F4
330
8A
100
AcDbEntity
  8
Layer 1
370
     0
100
AcDb2dPolyline
 66
     1
 10
0.0
 20
0.0
 30
0.0
  0
VERTEX
  5
F5
330
F4
100
AcDbEntity
  8
Layer 1
370
     0
100
AcDbVertex
100
AcDb2dVertex
 10
14.84415852493479
 20
48.04295897236425
 30
0.0
  0
VERTEX
  5
188
330
F4
100
AcDbEntity
  8
0
100
AcDbVertex
100
AcDb2dVertex
 10
14.84415852493479
 20
48.04295897236425
 30
0.0
  0
SEQEND
  5
F6
330
F4
100
AcDbEntity
  8
Layer 1
370
     0
  0
POLYLINE
  5
F7
330
8A
100
AcDbEntity
  8
Layer 1
370
     0
100
AcDb2dPolyline
 66
     1
 10
0.0
 20
0.0
 30
0.0
  0
VERTEX
  5
F8
330
F7
100
AcDbEntity
  8
Layer 1
370
     0
100
AcDbVertex
100
AcDb2dVertex
 10
14.9893865251155
 20
48.11509927182539
 30
0.0
  0
VERTEX
  5
189
330
F7
100
AcDbEntity
  8
0
100
AcDbVertex
100
AcDb2dVertex
 10
14.9893865251155
 20
48.11509927182539
 30
0.0
  0
SEQEND
  5
F9
330
F7
100
AcDbEntity
  8
Layer 1
370
     0
  0
POLYLINE
  5
FA
330
8A
100
AcDbEntity
  8
Layer 1
370
     0
100
AcDb2dPolyline
 66
     1
 10
0.0
 20
0.0
 30
0.0
  0
VERTEX
  5
FB
330
FA
100
AcDbEntity
  8
Layer 1
370
     0
100
AcDbVertex
100
AcDb2dVertex
 10
14.78605698957605
 20
48.00154892463156
 30
0.0
  0
VERTEX
  5
18A
330
FA
100
AcDbEntity
  8
0
100
AcDbVertex
100
AcDb2dVertex
 10
14.78605698957605
 20
48.00154892463156
 30
0.0
  0
SEQEND
  5
FC
330
FA
100
AcDbEntity
  8
Layer 1
370
     0
  0
POLYLINE
  5
FD
330
8A
100
AcDbEntity
  8
Layer 1
370
     0
100
AcDb2dPolyline
 66
     1
 10
0.0
 20
0.0
 30
0.0
  0
VERTEX
  5
FE
330
FD
100
AcDbEntity
  8
Layer 1
370
     0
100
AcDbVertex
100
AcDb2dVertex
 10
14.84510592619324
 20
48.04006509215665
 30
0.0
  0
VERTEX
  5
18B
330
FD
100
AcDbEntity
  8
0
100
AcDbVertex
100
AcDb2dVertex
 10
14.84510592619324
 20
48.04006509215665
 30
0.0
  0
SEQEND
  5
FF
330
FD
100
AcDbEntity
  8
Layer 1
370
     0
  0
POLYLINE
  5
100
330
8A
100
AcDbEntity
  8
Layer 1
370
     0
100
AcDb2dPolyline
 66
     1
 10
0.0
 20
0.0
 30
0.0
  0
VERTEX
  5
101
330
100
100
AcDbEntity
  8
Layer 1
370
     0
100
AcDbVertex
100
AcDb2dVertex
 10
14.78507513736276
 20
48.00137666985729
 30
0.0
  0
VERTEX
  5
18C
330
100
100
AcDbEntity
  8
0
100
AcDbVertex
100
AcDb2dVertex
 10
14.78507513736276
 20
48.00137666985729
 30
0.0
  0
SEQEND
  5
102
330
100
100
AcDbEntity
  8
Layer 1
370
     0
  0
POLYLINE
  5
103
330
8A
100
AcDbEntity
  8
Layer 1
370
     0
100
AcDb2dPolyline
 66
     1
 10
0.0
 20
0.0
 30
0.0
  0
VERTEX
  5
104
330
103
100
AcDbEntity
  8
Layer 1
370
     0
100
AcDbVertex
100
AcDb2dVertex
 10
18.34957763213135
 20
47.9732991416525
 30
0.0
  0
VERTEX
  5
18D
330
103
100
AcDbEntity
  8
0
100
AcDbVertex
100
AcDb2dVertex
 10
18.34957763213135
 20
47.9732991416525
 30
0.0
  0
SEQEND
  5
105
330
103
100
AcDbEntity
  8
Layer 1
370
     0
  0
POLYLINE
  5
106
330
8A
100
AcDbEntity
  8
Layer 1
370
     0
100
AcDb2dPolyline
 66
     1
 10
0.0
 20
0.0
 30
0.0
  0
VERTEX
  5
107
330
106
100
AcDbEntity
  8
Layer 1
370
     0
100
AcDbVertex
100
AcDb2dVertex
 10
18.33259331138907
 20
48.00137666985729
 30
0.0
  0
VERTEX
  5
18E
330
106
100
AcDbEntity
  8
0
100
AcDbVertex
100
AcDb2dVertex
 10
18.33259331138907
 20
48.00137666985729
 30
0.0
  0
SEQEND
  5
108
330
106
100
AcDbEntity
  8
Layer 1
370
     0
  0
POLYLINE
  5
109
330
8A
100
AcDbEntity
  8
Layer 1
370
     0
100
AcDb2dPolyline
 66
     1
 10
0.0
 20
0.0
 30
0.0
  0
VERTEX
  5
10A
330
109
100
AcDbEntity
  8
Layer 1
370
     0
100
AcDbVertex
100
AcDb2dVertex
 10
18.5036250767543
 20
51.19280977452819
 30
0.0
  0
VERTEX
  5
10B
330
109
100
AcDbEntity
  8
Layer 1
370
     0
100
AcDbVertex
100
AcDb2dVertex
 10
18.53699082652895
 20
51.20822657682468
 30
0.0
  0
SEQEND
  5
10C
330
109
100
AcDbEntity
  8
Layer 1
370
     0
  0
POLYLINE
  5
10D
330
8A
100
AcDbEntity
  8
Layer 1
370
     0
100
AcDb2dPolyline
 66
     1
 10
0.0
 20
0.0
 30
0.0
  0
VERTEX
  5
10E
330
10D
100
AcDbEntity
  8
Layer 1
370
     0
100
AcDbVertex
100
AcDb2dVertex
 10
14.84415852493479
 20
48.04295897236425
 30
0.0
  0
VERTEX
  5
18F
330
10D
100
AcDbEntity
  8
0
100
AcDbVertex
100
AcDb2dVertex
 10
14.84415852493479
 20
48.04295897236425
 30
0.0
  0
SEQEND
  5
10F
330
10D
100
AcDbEntity
  8
Layer 1
370
     0
  0
POLYLINE
  5
110
330
8A
100
AcDbEntity
  8
Layer 1
370
     0
100
AcDb2dPolyline
 66
     1
 10
0.0
 20
0.0
 30
0.0
  0
VERTEX
  5
111
330
110
100
AcDbEntity
  8
Layer 1
370
     0
100
AcDbVertex
100
AcDb2dVertex
 10
14.9893865251155
 20
48.11509927182539
 30
0.0
  0
VERTEX
  5
190
330
110
100
AcDbEntity
  8
0
100
AcDbVertex
100
AcDb2dVertex
 10
14.9893865251155
 20
48.11509927182539
 30
0.0
  0
SEQEND
  5
112
330
110
100
AcDbEntity
  8
Layer 1
370
     0
  0
POLYLINE
  5
113
330
8A
100
AcDbEntity
  8
Layer 1
370
     0
100
AcDb2dPolyline
 66
     1
 10
0.0
 20
0.0
 30
0.0
  0
VERTEX
  5
114
330
113
100
AcDbEntity
  8
Layer 1
370
     0
100
AcDbVertex
100
AcDb2dVertex
 10
14.99143635692922
 20
48.11192978397896
 30
0.0
  0
VERTEX
  5
115
330
113
100
AcDbEntity
  8
Layer 1
370
     0
100
AcDbVertex
100
AcDb2dVertex
 10
14.67559000284152
 20
47.94301675233716
 30
0.0
  0
SEQEND
  5
116
330
113
100
AcDbEntity
  8
Layer 1
370
     0
  0
POLYLINE
  5
117
330
8A
100
AcDbEntity
  8
Layer 1
370
     0
100
AcDb2dPolyline
 66
     1
 10
0.0
 20
0.0
 30
0.0
  0
VERTEX
  5
118
330
117
100
AcDbEntity
  8
Layer 1
370
     0
100
AcDbVertex
100
AcDb2dVertex
 10
14.78507513736276
 20
48.00137666985729
 30
0.0
  0
VERTEX
  5
191
330
117
100
AcDbEntity
  8
0
100
AcDbVertex
100
AcDb2dVertex
 10
14.78507513736276
 20
48.00137666985729
 30
0.0
  0
SEQEND
  5
119
330
117
100
AcDbEntity
  8
Layer 1
370
     0
  0
POLYLINE
  5
11A
330
8A
100
AcDbEntity
  8
Layer 1
370
     0
100
AcDb2dPolyline
 66
     1
 10
0.0
 20
0.0
 30
0.0
  0
VERTEX
  5
11B
330
11A
100
AcDbEntity
  8
Layer 1
370
     0
100
AcDbVertex
100
AcDb2dVertex
 10
18.34957763213135
 20
47.9732991416525
 30
0.0
  0
VERTEX
  5
192
330
11A
100
AcDbEntity
  8
0
100
AcDbVertex
100
AcDb2dVertex
 10
18.34957763213135
 20
47.9732991416525
 30
0.0
  0
SEQEND
  5
11C
330
11A
100
AcDbEntity
  8
Layer 1
370
     0
  0
POLYLINE
  5
11D
330
8A
100
AcDbEntity
  8
Layer 1
370
     0
100
AcDb2dPolyline
 66
     1
 10
0.0
 20
0.0
 30
0.0
  0
VERTEX
  5
11E
330
11D
100
AcDbEntity
  8
Layer 1
370
     0
100
AcDbVertex
100
AcDb2dVertex
 10
18.33259331138907
 20
48.00137666985729
 30
0.0
  0
VERTEX
  5
193
330
11D
100
AcDbEntity
  8
0
100
AcDbVertex
100
AcDb2dVertex
 10
18.33259331138907
 20
48.00137666985729
 30
0.0
  0
SEQEND
  5
11F
330
11D
100
AcDbEntity
  8
Layer 1
370
     0
  0
POLYLINE
  5
120
330
8A
100
AcDbEntity
  8
Layer 1
370
     0
100
AcDb2dPolyline
 66
     1
 10
0.0
 20
0.0
 30
0.0
  0
VERTEX
  5
121
330
120
100
AcDbEntity
  8
Layer 1
370
     0
100
AcDbVertex
100
AcDb2dVertex
 10
16.45618760439289
 20
55.39811725503068
 30
0.0
  0
VERTEX
  5
122
330
120
100
AcDbEntity
  8
Layer 1
370
     0
100
AcDbVertex
100
AcDb2dVertex
 10
16.40161729190654
 20
55.32537406385963
 30
0.0
  0
VERTEX
  5
123
330
120
100
AcDbEntity
  8
Layer 1
370
     0
100
AcDbVertex
100
AcDb2dVertex
 10
16.32660033771522
 20
55.22307195342513
 30
0.0
  0
SEQEND
  5
124
330
120
100
AcDbEntity
  8
Layer 1
370
     0
  0
SPLINE
  5
125
330
8A
100
AcDbEntity
  8
Layer 1
370
     0
100
AcDbSpline
210
0.0
220
0.0
230
1.0
 70
     8
 71
     3
 72
     8
 73
     4
 74
     0
 42
0.0000000001
 43
0.0000000001
 40
0.0
 40
0.0
 40
0.0
 40
0.0
 40
1.0
 40
1.0
 40
1.0
 40
1.0
 10
16.32541177977281
 20
55.22494953046459
 30
0.0
 10
16.271065398493
 20
55.16374740916913
 30
0.0
 10
16.2300515367411
 20
55.09191716830167
 30
0.0
 10
16.20497124160848
 20
55.01402355938017
 30
0.0
  0
POLYLINE
  5
126
330
8A
100
AcDbEntity
  8
Layer 1
370
     0
100
AcDb2dPolyline
 66
     1
 10
0.0
 20
0.0
 30
0.0
  0
VERTEX
  5
127
330
126
100
AcDbEntity
  8
Layer 1
370
     0
100
AcDbVertex
100
AcDb2dVertex
 10
16.20610812311861
 20
55.01390298103819
 30
0.0
  0
VERTEX
  5
128
330
126
100
AcDbEntity
  8
Layer 1
370
     0
100
AcDbVertex
100
AcDb2dVertex
 10
16.09243719758279
 20
54.66150416385198
 30
0.0
  0
VERTEX
  5
129
330
126
100
AcDbEntity
  8
Layer 1
370
     0
100
AcDbVertex
100
AcDb2dVertex
 10
15.32400864959782
 20
52.91549532097251
 30
0.0
  0
VERTEX
  5
12A
330
126
100
AcDbEntity
  8
Layer 1
370
     0
100
AcDbVertex
100
AcDb2dVertex
 10
14.78974324174527
 20
51.41045368180884
 30
0.0
  0
SEQEND
  5
12B
330
126
100
AcDbEntity
  8
Layer 1
370
     0
  0
SPLINE
  5
12C
330
8A
100
AcDbEntity
  8
Layer 1
370
     0
100
AcDbSpline
210
0.0
220
0.0
230
1.0
 70
     8
 71
     3
 72
     8
 73
     4
 74
     0
 42
0.0000000001
 43
0.0000000001
 40
0.0
 40
0.0
 40
0.0
 40
0.0
 40
1.0
 40
1.0
 40
1.0
 40
1.0
 10
14.78788289018324
 20
51.41131495568015
 30
0.0
 10
14.77968356292834
 20
51.38823281592898
 30
0.0
 10
14.79072509395857
 20
51.36273910933813
 30
0.0
 10
14.8131871165224
 20
51.35295503816002
 30
0.0
  0
POLYLINE
  5
12D
330
8A
100
AcDbEntity
  8
Layer 1
370
     0
100
AcDb2dPolyline
 66
     1
 10
0.0
 20
0.0
 30
0.0
  0
VERTEX
  5
12E
330
12D
100
AcDbEntity
  8
Layer 1
370
     0
100
AcDbVertex
100
AcDb2dVertex
 10
14.81473740949076
 20
51.35137029423681
 30
0.0
  0
VERTEX
  5
12F
330
12D
100
AcDbEntity
  8
Layer 1
370
     0
100
AcDbVertex
100
AcDb2dVertex
 10
14.84657009177447
 20
51.33771049063779
 30
0.0
  0
SEQEND
  5
130
330
12D
100
AcDbEntity
  8
Layer 1
370
     0
  0
SPLINE
  5
131
330
8A
100
AcDbEntity
  8
Layer 1
370
     0
100
AcDbSpline
210
0.0
220
0.0
230
1.0
 70
     8
 71
     3
 72
     8
 73
     4
 74
     0
 42
0.0000000001
 43
0.0000000001
 40
0.0
 40
0.0
 40
0.0
 40
0.0
 40
1.0
 40
1.0
 40
1.0
 40
1.0
 10
14.84383124086369
 20
51.33946748933527
 30
0.0
 10
14.88041815491705
 20
51.32353392271599
 30
0.0
 10
14.91986449822316
 20
51.31519679164168
 30
0.0
 10
14.95977592941978
 20
51.31499008591257
 30
0.0
  0
POLYLINE
  5
132
330
8A
100
AcDbEntity
  8
Layer 1
370
     0
100
AcDb2dPolyline
 66
     1
 10
0.0
 20
0.0
 30
0.0
  0
VERTEX
  5
133
330
132
100
AcDbEntity
  8
Layer 1
370
     0
100
AcDbVertex
100
AcDb2dVertex
 10
14.95977592941978
 20
51.31499008591257
 30
0.0
  0
VERTEX
  5
134
330
132
100
AcDbEntity
  8
Layer 1
370
     0
100
AcDbVertex
100
AcDb2dVertex
 10
16.2052468492473
 20
51.30815157137435
 30
0.0
  0
VERTEX
  5
135
330
132
100
AcDbEntity
  8
Layer 1
370
     0
100
AcDbVertex
100
AcDb2dVertex
 10
16.20068209772934
 20
50.53972302338937
 30
0.0
  0
SEQEND
  5
136
330
132
100
AcDbEntity
  8
Layer 1
370
     0
  0
SPLINE
  5
137
330
8A
100
AcDbEntity
  8
Layer 1
370
     0
100
AcDbSpline
210
0.0
220
0.0
230
1.0
 70
     8
 71
     3
 72
     8
 73
     4
 74
     0
 42
0.0000000001
 43
0.0000000001
 40
0.0
 40
0.0
 40
0.0
 40
0.0
 40
1.0
 40
1.0
 40
1.0
 40
1.0
 10
16.16487033016017
 20
50.1008523095234
 30
0.0
 10
16.18790079347907
 20
50.24711383834968
 30
0.0
 10
16.19983804933545
 20
50.39489120918947
 30
0.0
 10
16.20066487225192
 20
50.54294418766808
 30
0.0
  0
POLYLINE
  5
138
330
8A
100
AcDbEntity
  8
Layer 1
370
     0
100
AcDb2dPolyline
 66
     1
 10
0.0
 20
0.0
 30
0.0
  0
VERTEX
  5
139
330
138
100
AcDbEntity
  8
Layer 1
370
     0
100
AcDbVertex
100
AcDb2dVertex
 10
16.16431911488253
 20
50.09868189936769
 30
0.0
  0
VERTEX
  5
13A
330
138
100
AcDbEntity
  8
Layer 1
370
     0
100
AcDbVertex
100
AcDb2dVertex
 10
16.09839721277227
 20
49.50516084916885
 30
0.0
  0
VERTEX
  5
13B
330
138
100
AcDbEntity
  8
Layer 1
370
     0
100
AcDbVertex
100
AcDb2dVertex
 10
15.95061984193248
 20
48.74479382461935
 30
0.0
  0
SEQEND
  5
13C
330
138
100
AcDbEntity
  8
Layer 1
370
     0
  0
SPLINE
  5
13D
330
8A
100
AcDbEntity
  8
Layer 1
370
     0
100
AcDbSpline
210
0.0
220
0.0
230
1.0
 70
     8
 71
     3
 72
     8
 73
     4
 74
     0
 42
0.0000000001
 43
0.0000000001
 40
0.0
 40
0.0
 40
0.0
 40
0.0
 40
1.0
 40
1.0
 40
1.0
 40
1.0
 10
15.90304307328118
 20
48.57639755730034
 30
0.0
 10
15.92311075448276
 20
48.63017549782509
 30
0.0
 10
15.93897541919234
 20
48.6868817695123
 30
0.0
 10
15.95029255786138
 20
48.74551729467126
 30
0.0
  0
POLYLINE
  5
13E
330
8A
100
AcDbEntity
  8
Layer 1
370
     0
100
AcDb2dPolyline
 66
     1
 10
0.0
 20
0.0
 30
0.0
  0
VERTEX
  5
13F
330
13E
100
AcDbEntity
  8
Layer 1
370
     0
100
AcDbVertex
100
AcDb2dVertex
 10
15.90287081850692
 20
48.57474391146742
 30
0.0
  0
VERTEX
  5
140
330
13E
100
AcDbEntity
  8
Layer 1
370
     0
100
AcDbVertex
100
AcDb2dVertex
 10
15.8846807143448
 20
48.52661592753848
 30
0.0
  0
SEQEND
  5
141
330
13E
100
AcDbEntity
  8
Layer 1
370
     0
  0
SPLINE
  5
142
330
8A
100
AcDbEntity
  8
Layer 1
370
     0
100
AcDbSpline
210
0.0
220
0.0
230
1.0
 70
     8
 71
     3
 72
     8
 73
     4
 74
     0
 42
0.0000000001
 43
0.0000000001
 40
0.0
 40
0.0
 40
0.0
 40
0.0
 40
1.0
 40
1.0
 40
1.0
 40
1.0
 10
15.65790730402823
 20
48.19543889854141
 30
0.0
 10
15.75430107570552
 20
48.27391817369541
 30
0.0
 10
15.83295260563377
 20
48.38932887245127
 30
0.0
 10
15.88485296911906
 20
48.5282695733714
 30
0.0
  0
POLYLINE
  5
143
330
8A
100
AcDbEntity
  8
Layer 1
370
     0
100
AcDb2dPolyline
 66
     1
 10
0.0
 20
0.0
 30
0.0
  0
VERTEX
  5
144
330
143
100
AcDbEntity
  8
Layer 1
370
     0
100
AcDbVertex
100
AcDb2dVertex
 10
15.66331610394007
 20
48.19795381824564
 30
0.0
  0
VERTEX
  5
145
330
143
100
AcDbEntity
  8
Layer 1
370
     0
100
AcDbVertex
100
AcDb2dVertex
 10
15.30585299639055
 20
47.9973803590944
 30
0.0
  0
SEQEND
  5
146
330
143
100
AcDbEntity
  8
Layer 1
370
     0
  0
POLYLINE
  5
147
330
8A
100
AcDbEntity
  8
Layer 1
370
     0
100
AcDb2dPolyline
 66
     1
 10
0.0
 20
0.0
 30
0.0
  0
VERTEX
  5
148
330
147
100
AcDbEntity
  8
Layer 1
370
     0
100
AcDbVertex
100
AcDb2dVertex
 10
14.90915025126403
 20
47.85919757918103
 30
0.0
  0
VERTEX
  5
149
330
147
100
AcDbEntity
  8
Layer 1
370
     0
100
AcDbVertex
100
AcDb2dVertex
 10
15.30585299639055
 20
47.9973803590944
 30
0.0
  0
SEQEND
  5
14A
330
147
100
AcDbEntity
  8
Layer 1
370
     0
  0
POLYLINE
  5
14B
330
8A
100
AcDbEntity
  8
Layer 1
370
     0
100
AcDb2dPolyline
 66
     1
 10
0.0
 20
0.0
 30
0.0
  0
VERTEX
  5
14C
330
14B
100
AcDbEntity
  8
Layer 1
370
     0
100
AcDbVertex
100
AcDb2dVertex
 10
14.68094712632108
 20
47.93736679574135
 30
0.0
  0
VERTEX
  5
14D
330
14B
100
AcDbEntity
  8
Layer 1
370
     0
100
AcDbVertex
100
AcDb2dVertex
 10
14.90915025126403
 20
47.85919757918103
 30
0.0
  0
SEQEND
  5
14E
330
14B
100
AcDbEntity
  8
Layer 1
370
     0
  0
POLYLINE
  5
14F
330
8A
100
AcDbEntity
  8
Layer 1
370
     0
100
AcDb2dPolyline
 66
     1
 10
0.0
 20
0.0
 30
0.0
  0
VERTEX
  5
150
330
14F
100
AcDbEntity
  8
Layer 1
370
     0
100
AcDbVertex
100
AcDb2dVertex
 10
18.04294690846669
 20
47.8663289268355
 30
0.0
  0
VERTEX
  5
194
330
14F
100
AcDbEntity
  8
0
100
AcDbVertex
100
AcDb2dVertex
 10
18.04294690846669
 20
47.8663289268355
 30
0.0
  0
SEQEND
  5
151
330
14F
100
AcDbEntity
  8
Layer 1
370
     0
  0
POLYLINE
  5
152
330
8A
100
AcDbEntity
  8
Layer 1
370
     0
100
AcDb2dPolyline
 66
     1
 10
0.0
 20
0.0
 30
0.0
  0
VERTEX
  5
153
330
152
100
AcDbEntity
  8
Layer 1
370
     0
100
AcDbVertex
100
AcDb2dVertex
 10
18.02790906667358
 20
47.90074543073315
 30
0.0
  0
VERTEX
  5
195
330
152
100
AcDbEntity
  8
0
100
AcDbVertex
100
AcDb2dVertex
 10
18.02790906667358
 20
47.90074543073315
 30
0.0
  0
SEQEND
  5
154
330
152
100
AcDbEntity
  8
Layer 1
370
     0
  0
SPLINE
  5
155
330
8A
100
AcDbEntity
  8
Layer 1
370
     0
100
AcDbSpline
210
0.0
220
0.0
230
1.0
 70
     8
 71
     3
 72
     8
 73
     4
 74
     0
 42
0.0000000001
 43
0.0000000001
 40
0.0
 40
0.0
 40
0.0
 40
0.0
 40
1.0
 40
1.0
 40
1.0
 40
1.0
 10
18.17008815734984
 20
47.90202011606269
 30
0.0
 10
18.1299700204241
 20
47.93867593202575
 30
0.0
 10
17.88109632256965
 20
48.02876517896502
 30
0.0
 10
17.83579331693862
 20
48.05088269198033
 30
0.0
  0
SPLINE
  5
156
330
8A
100
AcDbEntity
  8
Layer 1
370
     0
100
AcDbSpline
210
0.0
220
0.0
230
1.0
 70
     8
 71
     3
 72
     8
 73
     4
 74
     0
 42
0.0000000001
 43
0.0000000001
 40
0.0
 40
0.0
 40
0.0
 40
0.0
 40
1.0
 40
1.0
 40
1.0
 40
1.0
 10
18.17542805535198
 20
47.90202011606269
 30
0.0
 10
18.21237670443128
 20
47.90939262040112
 30
0.0
 10
18.31111314103854
 20
47.98756183696144
 30
0.0
 10
18.3367446514488
 20
48.00154892463156
 30
0.0
  0
POLYLINE
  5
157
330
8A
100
AcDbEntity
  8
Layer 1
370
     0
100
AcDb2dPolyline
 66
     1
 10
0.0
 20
0.0
 30
0.0
  0
VERTEX
  5
158
330
157
100
AcDbEntity
  8
Layer 1
370
     0
100
AcDbVertex
100
AcDb2dVertex
 10
17.84382038941925
 20
48.04550834302334
 30
0.0
  0
VERTEX
  5
159
330
157
100
AcDbEntity
  8
Layer 1
370
     0
100
AcDbVertex
100
AcDb2dVertex
 10
17.54049695742043
 20
48.18744627701564
 30
0.0
  0
VERTEX
  5
15A
330
157
100
AcDbEntity
  8
Layer 1
370
     0
100
AcDbVertex
100
AcDb2dVertex
 10
17.49049139645203
 20
48.22840846233525
 30
0.0
  0
SEQEND
  5
15B
330
157
100
AcDbEntity
  8
Layer 1
370
     0
  0
SPLINE
  5
15C
330
8A
100
AcDbEntity
  8
Layer 1
370
     0
100
AcDbSpline
210
0.0
220
0.0
230
1.0
 70
     8
 71
     3
 72
     8
 73
     4
 74
     0
 42
0.0000000001
 43
0.0000000001
 40
0.0
 40
0.0
 40
0.0
 40
0.0
 40
1.0
 40
1.0
 40
1.0
 40
1.0
 10
17.26299451608356
 20
48.55744953213146
 30
0.0
 10
17.31487765409142
 20
48.42112710378013
 30
0.0
 10
17.39356363497452
 20
48.30785236422512
 30
0.0
 10
17.48992295569696
 20
48.23082002917493
 30
0.0
  0
POLYLINE
  5
15D
330
8A
100
AcDbEntity
  8
Layer 1
370
     0
100
AcDb2dPolyline
 66
     1
 10
0.0
 20
0.0
 30
0.0
  0
VERTEX
  5
15E
330
15D
100
AcDbEntity
  8
Layer 1
370
     0
100
AcDbVertex
100
AcDb2dVertex
 10
17.26314954538039
 20
48.55586478820825
 30
0.0
  0
VERTEX
  5
15F
330
15D
100
AcDbEntity
  8
Layer 1
370
     0
100
AcDbVertex
100
AcDb2dVertex
 10
17.24495944121827
 20
48.60309704731102
 30
0.0
  0
SEQEND
  5
160
330
15D
100
AcDbEntity
  8
Layer 1
370
     0
  0
SPLINE
  5
161
330
8A
100
AcDbEntity
  8
Layer 1
370
     0
100
AcDbSpline
210
0.0
220
0.0
230
1.0
 70
     8
 71
     3
 72
     8
 73
     4
 74
     0
 42
0.0000000001
 43
0.0000000001
 40
0.0
 40
0.0
 40
0.0
 40
0.0
 40
1.0
 40
1.0
 40
1.0
 40
1.0
 10
17.19753770186381
 20
48.77070094266843
 30
0.0
 10
17.20888929148771
 20
48.71313339710991
 30
0.0
 10
17.22471950524243
 20
48.65749510502312
 30
0.0
 10
17.24480441192144
 20
48.60471624218909
 30
0.0
  0
POLYLINE
  5
162
330
8A
100
AcDbEntity
  8
Layer 1
370
     0
100
AcDb2dPolyline
 66
     1
 10
0.0
 20
0.0
 30
0.0
  0
VERTEX
  5
163
330
162
100
AcDbEntity
  8
Layer 1
370
     0
100
AcDbVertex
100
AcDb2dVertex
 10
17.19722764327014
 20
48.76997747261653
 30
0.0
  0
VERTEX
  5
164
330
162
100
AcDbEntity
  8
Layer 1
370
     0
100
AcDbVertex
100
AcDb2dVertex
 10
17.05170680997318
 20
49.51618515472165
 30
0.0
  0
VERTEX
  5
165
330
162
100
AcDbEntity
  8
Layer 1
370
     0
100
AcDbVertex
100
AcDb2dVertex
 10
16.98578490786293
 20
50.09868189936769
 30
0.0
  0
SEQEND
  5
166
330
162
100
AcDbEntity
  8
Layer 1
370
     0
  0
SPLINE
  5
167
330
8A
100
AcDbEntity
  8
Layer 1
370
     0
100
AcDbSpline
210
0.0
220
0.0
230
1.0
 70
     8
 71
     3
 72
     8
 73
     4
 74
     0
 42
0.0000000001
 43
0.0000000001
 40
0.0
 40
0.0
 40
0.0
 40
0.0
 40
1.0
 40
1.0
 40
1.0
 40
1.0
 10
16.94716538747328
 20
50.54294418766808
 30
0.0
 10
16.94799221038974
 20
50.39489120918947
 30
0.0
 10
16.95996391720098
 20
50.24711383834968
 30
0.0
 10
16.98295992956502
 20
50.1008523095234
 30
0.0
  0
POLYLINE
  5
168
330
8A
100
AcDbEntity
  8
Layer 1
370
     0
100
AcDb2dPolyline
 66
     1
 10
0.0
 20
0.0
 30
0.0
  0
VERTEX
  5
169
330
168
100
AcDbEntity
  8
Layer 1
370
     0
100
AcDbVertex
100
AcDb2dVertex
 10
16.94942192501611
 20
50.53972302338937
 30
0.0
  0
VERTEX
  5
16A
330
168
100
AcDbEntity
  8
Layer 1
370
     0
100
AcDbVertex
100
AcDb2dVertex
 10
16.94485717349816
 20
51.30815157137435
 30
0.0
  0
VERTEX
  5
16B
330
168
100
AcDbEntity
  8
Layer 1
370
     0
100
AcDbVertex
100
AcDb2dVertex
 10
18.16858954081376
 20
51.31499008591257
 30
0.0
  0
SEQEND
  5
16C
330
168
100
AcDbEntity
  8
Layer 1
370
     0
  0
SPLINE
  5
16D
330
8A
100
AcDbEntity
  8
Layer 1
370
     0
100
AcDbSpline
210
0.0
220
0.0
230
1.0
 70
     8
 71
     3
 72
     8
 73
     4
 74
     0
 42
0.0000000001
 43
0.0000000001
 40
0.0
 40
0.0
 40
0.0
 40
0.0
 40
1.0
 40
1.0
 40
1.0
 40
1.0
 10
18.16858954081376
 20
51.31499008591257
 30
0.0
 10
18.20848374653295
 20
51.31519679164168
 30
0.0
 10
18.24794731531648
 20
51.32353392271599
 30
0.0
 10
18.28451700389241
 20
51.33946748933527
 30
0.0
  0
POLYLINE
  5
16E
330
8A
100
AcDbEntity
  8
Layer 1
370
     0
100
AcDb2dPolyline
 66
     1
 10
0.0
 20
0.0
 30
0.0
  0
VERTEX
  5
16F
330
16E
100
AcDbEntity
  8
Layer 1
370
     0
100
AcDbVertex
100
AcDb2dVertex
 10
18.28632567902217
 20
51.33771049063779
 30
0.0
  0
VERTEX
  5
170
330
16E
100
AcDbEntity
  8
Layer 1
370
     0
100
AcDbVertex
100
AcDb2dVertex
 10
18.31588459828561
 20
51.35137029423681
 30
0.0
  0
SEQEND
  5
171
330
16E
100
AcDbEntity
  8
Layer 1
370
     0
  0
SPLINE
  5
172
330
8A
100
AcDbEntity
  8
Layer 1
370
     0
100
AcDbSpline
210
0.0
220
0.0
230
1.0
 70
     8
 71
     3
 72
     8
 73
     4
 74
     0
 42
0.0000000001
 43
0.0000000001
 40
0.0
 40
0.0
 40
0.0
 40
0.0
 40
1.0
 40
1.0
 40
1.0
 40
1.0
 10
18.31516112823371
 20
51.35295503816002
 30
0.0
 10
18.33762315079754
 20
51.36273910933813
 30
0.0
 10
18.34868190730519
 20
51.38823281592898
 30
0.0
 10
18.34046535457287
 20
51.41131495568015
 30
0.0
  0
POLYLINE
  5
173
330
8A
100
AcDbEntity
  8
Layer 1
370
     0
100
AcDb2dPolyline
 66
     1
 10
0.0
 20
0.0
 30
0.0
  0
VERTEX
  5
174
330
173
100
AcDbEntity
  8
Layer 1
370
     0
100
AcDbVertex
100
AcDb2dVertex
 10
18.34316975452879
 20
51.41045368180884
 30
0.0
  0
VERTEX
  5
175
330
173
100
AcDbEntity
  8
Layer 1
370
     0
100
AcDbVertex
100
AcDb2dVertex
 10
17.80661335817855
 20
52.91549532097251
 30
0.0
  0
VERTEX
  5
176
330
173
100
AcDbEntity
  8
Layer 1
370
     0
100
AcDbVertex
100
AcDb2dVertex
 10
17.038202035671
 20
54.66150416385198
 30
0.0
  0
VERTEX
  5
177
330
173
100
AcDbEntity
  8
Layer 1
370
     0
100
AcDbVertex
100
AcDb2dVertex
 10
16.92453111013518
 20
55.01390298103819
 30
0.0
  0
SEQEND
  5
178
330
173
100
AcDbEntity
  8
Layer 1
370
     0
  0
SPLINE
  5
179
330
8A
100
AcDbEntity
  8
Layer 1
370
     0
100
AcDbSpline
210
0.0
220
0.0
230
1.0
 70
     8
 71
     3
 72
     8
 73
     4
 74
     0
 42
0.0000000001
 43
0.0000000001
 40
0.0
 40
0.0
 40
0.0
 40
0.0
 40
1.0
 40
1.0
 40
1.0
 40
1.0
 10
16.92565076616789
 20
55.01409246128988
 30
0.0
 10
16.90055324555785
 20
55.09198607021138
 30
0.0
 10
16.85953938380595
 20
55.1637990856014
 30
0.0
 10
16.80517577704871
 20
55.22498398141944
 30
0.0
  0
POLYLINE
  5
17A
330
8A
100
AcDbEntity
  8
Layer 1
370
     0
100
AcDb2dPolyline
 66
     1
 10
0.0
 20
0.0
 30
0.0
  0
VERTEX
  5
17B
330
17A
100
AcDbEntity
  8
Layer 1
370
     0
100
AcDbVertex
100
AcDb2dVertex
 10
16.56532822936561
 20
55.53452581076914
 30
0.0
  0
VERTEX
  5
17C
330
17A
100
AcDbEntity
  8
Layer 1
370
     0
100
AcDbVertex
100
AcDb2dVertex
 10
16.45618760439289
 20
55.39811725503068
 30
0.0
  0
SEQEND
  5
17D
330
17A
100
AcDbEntity
  8
Layer 1
370
     0
  0
POLYLINE
  5
17E
330
8A
100
AcDbEntity
  8
Layer 1
370
     0
100
AcDb2dPolyline
 66
     1
 10
0.0
 20
0.0
 30
0.0
  0
VERTEX
  5
17F
330
17E
100
AcDbEntity
  8
Layer 1
370
     0
100
AcDbVertex
100
AcDb2dVertex
 10
16.80402167006115
 20
55.22307195342513
 30
0.0
  0
VERTEX
  5
180
330
17E
100
AcDbEntity
  8
Layer 1
370
     0
100
AcDbVertex
100
AcDb2dVertex
 10
16.75174234607248
 20
55.30034544515929
 30
0.0
  0
VERTEX
  5
181
330
17E
100
AcDbEntity
  8
Layer 1
370
     0
100
AcDbVertex
100
AcDb2dVertex
 10
16.69262450754559
 20
55.38221813936624
 30
0.0
  0
VERTEX
  5
182
330
17E
100
AcDbEntity
  8
Layer 1
370
     0
100
AcDbVertex
100
AcDb2dVertex
 10
16.56532822936561
 20
55.53452581076914
 30
0.0
  0
SEQEND
  5
183
330
17E
100
AcDbEntity
  8
Layer 1
370
     0
  0
ENDBLK
  5
8D
330
8A
100
AcDbEntity
  8
0
100
AcDbBlockEnd
  0
ENDSEC
  0
SECTION
  2
ENTITIES
  0
SPLINE
  5
3C
330
1F
100
AcDbEntity
  8
Layer 1
370
     0
100
AcDbSpline
210
0.0
220
0.0
230
1.0
 70
    11
 71
     3
 72
    26
 73
    22
 74
     0
 42
0.0000000001
 43
0.0000000001
 40
0.0
 40
0.0
 40
0.0
 40
0.0
 40
1.0
 40
1.0
 40
1.0
 40
2.0
 40
2.0
 40
2.0
 40
3.0
 40
3.0
 40
3.0
 40
4.0
 40
4.0
 40
4.0
 40
5.0
 40
5.0
 40
5.0
 40
6.0
 40
6.0
 40
6.0
 40
7.0
 40
7.0
 40
7.0
 40
7.0
 10
2.143021646599661
 20
56.44449610676561
 30
0.0
 10
2.143021646599661
 20
56.44449610676561
 30
0.0
 10
2.789097628425989
 20
56.44449610676561
 30
0.0
 10
2.789097628425989
 20
56.44449610676561
 30
0.0
 10
3.019178330408399
 20
56.44449610676561
 30
0.0
 10
3.199460177151523
 20
56.37852252822307
 30
0.0
 10
3.329943168655361
 20
56.24667872400256
 30
0.0
 10
3.460426160159199
 20
56.11476601787235
 30
0.0
 10
3.525676268649831
 20
55.93238266288322
 30
0.0
 10
3.525676268649831
 20
55.69951143355776
 30
0.0
 10
3.525676268649831
 20
55.45537474199553
 30
0.0
 10
3.461115179256249
 20
55.26809935141735
 30
0.0
 10
3.33206190237879
 20
55.13759913443608
 30
0.0
 10
3.202956949069052
 20
55.00713336840967
 30
0.0
 10
3.021968857751452
 20
54.94190048539647
 30
0.0
 10
2.789097628425989
 20
54.94190048539647
 30
0.0
 10
2.789097628425989
 20
54.94190048539647
 30
0.0
 10
2.143021646599661
 20
54.94190048539647
 30
0.0
 10
2.143021646599661
 20
54.94190048539647
 30
0.0
 10
2.143021646599661
 20
54.94190048539647
 30
0.0
 10
2.143021646599661
 20
56.44449610676561
 30
0.0
 10
2.143021646599661
 20
56.44449610676561
 30
0.0
  0
SPLINE
  5
3D
330
1F
100
AcDbEntity
  8
Layer 1
370
     0
100
AcDbSpline
210
0.0
220
0.0
230
1.0
 70
    11
 71
     3
 72
    26
 73
    22
 74
     0
 42
0.0000000001
 43
0.0000000001
 40
0.0
 40
0.0
 40
0.0
 40
0.0
 40
1.0
 40
1.0
 40
1.0
 40
2.0
 40
2.0
 40
2.0
 40
3.0
 40
3.0
 40
3.0
 40
4.0
 40
4.0
 40
4.0
 40
5.0
 40
5.0
 40
5.0
 40
6.0
 40
6.0
 40
6.0
 40
7.0
 40
7.0
 40
7.0
 40
7.0
 10
2.534453395633748
 20
55.27860689264736
 30
0.0
 10
2.534453395633748
 20
55.27860689264736
 30
0.0
 10
2.719644503443353
 20
55.27860689264736
 30
0.0
 10
2.719644503443353
 20
55.27860689264736
 30
0.0
 10
2.868352050064162
 20
55.27860689264736
 30
0.0
 10
2.974616020306693
 20
55.31123194689268
 30
0.0
 10
3.038488090603225
 20
55.37648205538331
 30
0.0
 10
3.102308484467478
 20
55.44171493839651
 30
0.0
 10
3.134227294138318
 20
55.55009764236247
 30
0.0
 10
3.134227294138318
 20
55.70161294180376
 30
0.0
 10
3.134227294138318
 20
55.8362989497996
 30
0.0
 10
3.098777261595097
 20
55.93765365897566
 30
0.0
 10
3.027946098418361
 20
56.00571152028676
 30
0.0
 10
2.957097709764198
 20
56.07373493064302
 30
0.0
 10
2.854330511439195
 20
56.10777247403729
 30
0.0
 10
2.719644503443353
 20
56.10777247403729
 30
0.0
 10
2.719644503443353
 20
56.10777247403729
 30
0.0
 10
2.534453395633748
 20
56.10777247403729
 30
0.0
 10
2.534453395633748
 20
56.10777247403729
 30
0.0
 10
2.534453395633748
 20
56.10777247403729
 30
0.0
 10
2.534453395633748
 20
55.27860689264736
 30
0.0
 10
2.534453395633748
 20
55.27860689264736
 30
0.0
  0
SPLINE
  5
3E
330
1F
100
AcDbEntity
  8
Layer 1
370
     0
100
AcDbSpline
210
0.0
220
0.0
230
1.0
 70
    11
 71
     3
 72
    47
 73
    43
 74
     0
 42
0.0000000001
 43
0.0000000001
 40
0.0
 40
0.0
 40
0.0
 40
0.0
 40
1.0
 40
1.0
 40
1.0
 40
2.0
 40
2.0
 40
2.0
 40
3.0
 40
3.0
 40
3.0
 40
4.0
 40
4.0
 40
4.0
 40
5.0
 40
5.0
 40
5.0
 40
6.0
 40
6.0
 40
6.0
 40
7.0
 40
7.0
 40
7.0
 40
8.0
 40
8.0
 40
8.0
 40
9.0
 40
9.0
 40
9.0
 40
10.0
 40
10.0
 40
10.0
 40
11.0
 40
11.0
 40
11.0
 40
12.0
 40
12.0
 40
12.0
 40
13.0
 40
13.0
 40
13.0
 40
14.0
 40
14.0
 40
14.0
 40
14.0
 10
4.030710041310031
 20
55.40066662568976
 30
0.0
 10
4.030710041310031
 20
55.32490897596912
 30
0.0
 10
4.052241888092842
 20
55.26456812854497
 30
0.0
 10
4.095322807135891
 20
55.21967853437216
 30
0.0
 10
4.13840372617894
 20
55.17477171472193
 30
0.0
 10
4.197487113750975
 20
55.15234414311295
 30
0.0
 10
4.272521293419716
 20
55.15234414311295
 30
0.0
 10
4.318375514328392
 20
55.15234414311295
 30
0.0
 10
4.359372150602865
 20
55.16250717479444
 30
0.0
 10
4.395511202243136
 20
55.18286768911226
 30
0.0
 10
4.431650253883406
 20
55.20319375247524
 30
0.0
 10
4.458056910777847
 20
55.23299382842265
 30
0.0
 10
4.474748398403882
 20
55.27230236790935
 30
0.0
 10
4.474748398403882
 20
55.27230236790935
 30
0.0
 10
4.813573539378203
 20
55.27230236790935
 30
0.0
 10
4.813573539378203
 20
55.27230236790935
 30
0.0
 10
4.782688258352938
 20
55.15162067306105
 30
0.0
 10
4.717093640313782
 20
55.06111801466353
 30
0.0
 10
4.616806910738159
 20
55.00082884367166
 30
0.0
 10
4.516485730207684
 20
54.94050522172494
 30
0.0
 10
4.401092256929241
 20
54.91032618527415
 30
0.0
 10
4.270609265425403
 20
54.91032618527415
 30
0.0
 10
4.089638399585229
 20
54.91032618527415
 30
0.0
 10
3.944737683475621
 20
54.96189926468834
 30
0.0
 10
3.836044920915989
 20
55.06501097256186
 30
0.0
 10
3.727300481924078
 20
55.16813990591282
 30
0.0
 10
3.672954100644261
 20
55.31018119276968
 30
0.0
 10
3.672954100644261
 20
55.49116928408727
 30
0.0
 10
3.672954100644261
 20
55.6566888966761
 30
0.0
 10
3.73009100926713
 20
55.79383814794389
 30
0.0
 10
3.844450953899998
 20
55.90259981241324
 30
0.0
 10
3.95879367305544
 20
56.01130980045029
 30
0.0
 10
4.098061658046665
 20
56.06569063268496
 30
0.0
 10
4.262203232441394
 20
56.06569063268496
 30
0.0
 10
4.448772378445098
 20
56.06569063268496
 30
0.0
 10
4.590486381230851
 20
56.00361001204076
 30
0.0
 10
4.687293564366371
 20
55.87944877075235
 30
0.0
 10
4.784100747501891
 20
55.75527030398653
 30
0.0
 10
4.832521564547077
 20
55.5956590301549
 30
0.0
 10
4.832521564547077
 20
55.40066662568976
 30
0.0
 10
4.832521564547077
 20
55.40066662568976
 30
0.0
 10
4.030710041310031
 20
55.40066662568976
 30
0.0
 10
4.030710041310031
 20
55.40066662568976
 30
0.0
  0
SPLINE
  5
3F
330
1F
100
AcDbEntity
  8
Layer 1
370
     0
100
AcDbSpline
210
0.0
220
0.0
230
1.0
 70
    11
 71
     3
 72
    20
 73
    16
 74
     0
 42
0.0000000001
 43
0.0000000001
 40
0.0
 40
0.0
 40
0.0
 40
0.0
 40
1.0
 40
1.0
 40
1.0
 40
2.0
 40
2.0
 40
2.0
 40
3.0
 40
3.0
 40
3.0
 40
4.0
 40
4.0
 40
4.0
 40
5.0
 40
5.0
 40
5.0
 40
5.0
 10
4.474748398403882
 20
55.60060274217624
 30
0.0
 10
4.474748398403882
 20
55.66232162779448
 30
0.0
 10
4.454387884086056
 20
55.71492823585425
 30
0.0
 10
4.413718531882681
 20
55.75843979183296
 30
0.0
 10
4.373014728724455
 20
55.80189967137938
 30
0.0
 10
4.322509628910692
 20
55.82367267484616
 30
0.0
 10
4.262203232441394
 20
55.82367267484616
 30
0.0
 10
4.19907185767419
 20
55.82367267484616
 30
0.0
 10
4.147516003737426
 20
55.80367389555428
 30
0.0
 10
4.107518445153675
 20
55.76369356244796
 30
0.0
 10
4.067538112047352
 20
55.72371322934163
 30
0.0
 10
4.041923827114519
 20
55.66931517162954
 30
0.0
 10
4.030710041310031
 20
55.60060274217624
 30
0.0
 10
4.030710041310031
 20
55.60060274217624
 30
0.0
 10
4.474748398403882
 20
55.60060274217624
 30
0.0
 10
4.474748398403882
 20
55.60060274217624
 30
0.0
  0
SPLINE
  5
40
330
1F
100
AcDbEntity
  8
Layer 1
370
     0
100
AcDbSpline
210
0.0
220
0.0
230
1.0
 70
    11
 71
     3
 72
    59
 73
    55
 74
     0
 42
0.0000000001
 43
0.0000000001
 40
0.0
 40
0.0
 40
0.0
 40
0.0
 40
1.0
 40
1.0
 40
1.0
 40
2.0
 40
2.0
 40
2.0
 40
3.0
 40
3.0
 40
3.0
 40
4.0
 40
4.0
 40
4.0
 40
5.0
 40
5.0
 40
5.0
 40
6.0
 40
6.0
 40
6.0
 40
7.0
 40
7.0
 40
7.0
 40
8.0
 40
8.0
 40
8.0
 40
9.0
 40
9.0
 40
9.0
 40
10.0
 40
10.0
 40
10.0
 40
11.0
 40
11.0
 40
11.0
 40
12.0
 40
12.0
 40
12.0
 40
13.0
 40
13.0
 40
13.0
 40
14.0
 40
14.0
 40
14.0
 40
15.0
 40
15.0
 40
15.0
 40
16.0
 40
16.0
 40
16.0
 40
17.0
 40
17.0
 40
17.0
 40
18.0
 40
18.0
 40
18.0
 40
18.0
 10
5.722699786980783
 20
55.63427855054455
 30
0.0
 10
5.722699786980783
 20
55.67915091923993
 30
0.0
 10
5.70549153503196
 20
55.7166680090743
 30
0.0
 10
5.671126707566593
 20
55.74686427100252
 30
0.0
 10
5.636727429146373
 20
55.77700885649845
 30
0.0
 10
5.595696341917048
 20
55.79209837472385
 30
0.0
 10
5.54801622040119
 20
55.79209837472385
 30
0.0
 10
5.458219806578153
 20
55.79209837472385
 30
0.0
 10
5.397189940056952
 20
55.76191933827306
 30
0.0
 10
5.364943846315014
 20
55.70161294180376
 30
0.0
 10
5.332646076140796
 20
55.64127209437961
 30
0.0
 10
5.316540254747253
 20
55.56410195551001
 30
0.0
 10
5.316540254747253
 20
55.4701197506724
 30
0.0
 10
5.316540254747253
 20
55.39153712265385
 30
0.0
 10
5.334058565289749
 20
55.32418550591721
 30
0.0
 10
5.369146862807018
 20
55.26809935141735
 30
0.0
 10
5.404200709369436
 20
55.2119615204852
 30
0.0
 10
5.457530787481103
 20
55.18390121775784
 30
0.0
 10
5.529085420709742
 20
55.18390121775784
 30
0.0
 10
5.588013778984941
 20
55.18390121775784
 30
0.0
 10
5.634643146377798
 20
55.20038599965476
 30
0.0
 10
5.669025199320591
 20
55.23337278892603
 30
0.0
 10
5.703390026785958
 20
55.26630790176502
 30
0.0
 10
5.724801295226785
 20
55.31228270101568
 30
0.0
 10
5.733207328210795
 20
55.37121105929087
 30
0.0
 10
5.733207328210795
 20
55.37121105929087
 30
0.0
 10
6.080455727646553
 20
55.37121105929087
 30
0.0
 10
6.080455727646553
 20
55.37121105929087
 30
0.0
 10
6.065004474395207
 20
55.22668930368464
 30
0.0
 10
6.00712687024301
 20
55.11374184820072
 30
0.0
 10
5.906840140667387
 20
55.03238591831655
 30
0.0
 10
5.806518960136912
 20
54.95101276295495
 30
0.0
 10
5.68128973924808
 20
54.91032618527415
 30
0.0
 10
5.531186928955744
 20
54.91032618527415
 30
0.0
 10
5.365632865412064
 20
54.91032618527415
 30
0.0
 10
5.228828123692793
 20
54.96220932328201
 30
0.0
 10
5.12082438023021
 20
55.06606172668487
 30
0.0
 10
5.012768960335349
 20
55.16987967913288
 30
0.0
 10
4.958784314081484
 20
55.30456568712872
 30
0.0
 10
4.958784314081484
 20
55.4701197506724
 30
0.0
 10
4.958784314081484
 20
55.64549233634904
 30
0.0
 10
5.01065022661192
 20
55.78858437732889
 30
0.0
 10
5.114502630014777
 20
55.89943032456681
 30
0.0
 10
5.218320582462781
 20
56.01024182084986
 30
0.0
 10
5.357209606950628
 20
56.06569063268496
 30
0.0
 10
5.531186928955744
 20
56.06569063268496
 30
0.0
 10
5.674296195413023
 20
56.06569063268496
 30
0.0
 10
5.796683212526523
 20
56.02850082692169
 30
0.0
 10
5.898416882205951
 20
55.95413844087257
 30
0.0
 10
6.000133326407952
 20
55.87977605482345
 30
0.0
 10
6.057304685985673
 20
55.7731675750324
 30
0.0
 10
6.069930960939114
 20
55.63427855054455
 30
0.0
 10
6.069930960939114
 20
55.63427855054455
 30
0.0
 10
5.722699786980783
 20
55.63427855054455
 30
0.0
 10
5.722699786980783
 20
55.63427855054455
 30
0.0
  0
SPLINE
  5
41
330
1F
100
AcDbEntity
  8
Layer 1
370
     0
100
AcDbSpline
210
0.0
220
0.0
230
1.0
 70
    11
 71
     3
 72
    41
 73
    37
 74
     0
 42
0.0000000001
 43
0.0000000001
 40
0.0
 40
0.0
 40
0.0
 40
0.0
 40
1.0
 40
1.0
 40
1.0
 40
2.0
 40
2.0
 40
2.0
 40
3.0
 40
3.0
 40
3.0
 40
4.0
 40
4.0
 40
4.0
 40
5.0
 40
5.0
 40
5.0
 40
6.0
 40
6.0
 40
6.0
 40
7.0
 40
7.0
 40
7.0
 40
8.0
 40
8.0
 40
8.0
 40
9.0
 40
9.0
 40
9.0
 40
10.0
 40
10.0
 40
10.0
 40
11.0
 40
11.0
 40
11.0
 40
12.0
 40
12.0
 40
12.0
 40
12.0
 10
7.557764348153961
 20
56.03411633256265
 30
0.0
 10
7.557764348153961
 20
56.03411633256265
 30
0.0
 10
7.904995522112293
 20
56.03411633256265
 30
0.0
 10
7.904995522112293
 20
56.03411633256265
 30
0.0
 10
7.904995522112293
 20
56.03411633256265
 30
0.0
 10
7.904995522112293
 20
55.84260347453761
 30
0.0
 10
7.904995522112293
 20
55.84260347453761
 30
0.0
 10
7.962511391238539
 20
55.98430025184594
 30
0.0
 10
8.073340112999025
 20
56.05516586597752
 30
0.0
 10
8.23749891287118
 20
56.05516586597752
 30
0.0
 10
8.26974500661312
 20
56.05516586597752
 30
0.0
 10
8.297805309340479
 20
56.05234088767962
 30
0.0
 10
8.32167982105326
 20
56.04674260751609
 30
0.0
 10
8.32167982105326
 20
56.04674260751609
 30
0.0
 10
8.32167982105326
 20
55.72056096697263
 30
0.0
 10
8.32167982105326
 20
55.72056096697263
 30
0.0
 10
8.300630287638384
 20
55.72614202165874
 30
0.0
 10
8.278168265074555
 20
55.73106850820265
 30
0.0
 10
8.254345429794052
 20
55.73528875017207
 30
0.0
 10
8.23047091808127
 20
55.73949176666408
 30
0.0
 10
8.207319876420392
 20
55.74159327491008
 30
0.0
 10
8.184892304811415
 20
55.74159327491008
 30
0.0
 10
8.100711396629336
 20
55.74159327491008
 30
0.0
 10
8.034755043564227
 20
55.7163407250032
 30
0.0
 10
7.98707492204837
 20
55.66583562518944
 30
0.0
 10
7.939360349577659
 20
55.61533052537568
 30
0.0
 10
7.915520288819731
 20
55.55430065885448
 30
0.0
 10
7.915520288819731
 20
55.48274602562584
 30
0.0
 10
7.915520288819731
 20
55.48274602562584
 30
0.0
 10
7.915520288819731
 20
54.94190048539647
 30
0.0
 10
7.915520288819731
 20
54.94190048539647
 30
0.0
 10
7.915520288819731
 20
54.94190048539647
 30
0.0
 10
7.557764348153961
 20
54.94190048539647
 30
0.0
 10
7.557764348153961
 20
54.94190048539647
 30
0.0
 10
7.557764348153961
 20
54.94190048539647
 30
0.0
 10
7.557764348153961
 20
56.03411633256265
 30
0.0
 10
7.557764348153961
 20
56.03411633256265
 30
0.0
  0
SPLINE
  5
42
330
1F
100
AcDbEntity
  8
Layer 1
370
     0
100
AcDbSpline
210
0.0
220
0.0
230
1.0
 70
    11
 71
     3
 72
    77
 73
    73
 74
     0
 42
0.0000000001
 43
0.0000000001
 40
0.0
 40
0.0
 40
0.0
 40
0.0
 40
1.0
 40
1.0
 40
1.0
 40
2.0
 40
2.0
 40
2.0
 40
3.0
 40
3.0
 40
3.0
 40
4.0
 40
4.0
 40
4.0
 40
5.0
 40
5.0
 40
5.0
 40
6.0
 40
6.0
 40
6.0
 40
7.0
 40
7.0
 40
7.0
 40
8.0
 40
8.0
 40
8.0
 40
9.0
 40
9.0
 40
9.0
 40
10.0
 40
10.0
 40
10.0
 40
11.0
 40
11.0
 40
11.0
 40
12.0
 40
12.0
 40
12.0
 40
13.0
 40
13.0
 40
13.0
 40
14.0
 40
14.0
 40
14.0
 40
15.0
 40
15.0
 40
15.0
 40
16.0
 40
16.0
 40
16.0
 40
17.0
 40
17.0
 40
17.0
 40
18.0
 40
18.0
 40
18.0
 40
19.0
 40
19.0
 40
19.0
 40
20.0
 40
20.0
 40
20.0
 40
21.0
 40
21.0
 40
21.0
 40
22.0
 40
22.0
 40
22.0
 40
23.0
 40
23.0
 40
23.0
 40
24.0
 40
24.0
 40
24.0
 40
24.0
 10
8.42689303717279
 20
55.69740992531175
 30
0.0
 10
8.42689303717279
 20
55.76612235476506
 30
0.0
 10
8.441948104443332
 20
55.82436169394321
 30
0.0
 10
8.47212714089412
 20
55.87207626641392
 30
0.0
 10
8.502288951867483
 20
55.91973916245235
 30
0.0
 10
8.542631019999758
 20
55.95799694781605
 30
0.0
 10
8.59313611981352
 20
55.98676349511789
 30
0.0
 10
8.643641219627284
 20
56.0155128169423
 30
0.0
 10
8.697643091358575
 20
56.03587333126013
 30
0.0
 10
8.755176185962247
 20
56.04779336163909
 30
0.0
 10
8.812692055088492
 20
56.05969616654063
 30
0.0
 10
8.875823429855696
 20
56.06569063268496
 30
0.0
 10
8.944587535741283
 20
56.06569063268496
 30
0.0
 10
9.100323077152002
 20
56.06569063268496
 30
0.0
 10
9.22410535793703
 20
56.04007634775213
 30
0.0
 10
9.316020505483495
 20
55.98886500336389
 30
0.0
 10
9.407901202075108
 20
55.93765365897566
 30
0.0
 10
9.45385877584834
 20
55.84119098538866
 30
0.0
 10
9.45385877584834
 20
55.69951143355776
 30
0.0
 10
9.45385877584834
 20
55.69951143355776
 30
0.0
 10
9.45385877584834
 20
55.22179726809559
 30
0.0
 10
9.45385877584834
 20
55.22179726809559
 30
0.0
 10
9.45385877584834
 20
55.15303316221
 30
0.0
 10
9.455977509571769
 20
55.09901406500128
 30
0.0
 10
9.460180526063773
 20
55.05975720194687
 30
0.0
 10
9.464400768033205
 20
55.02044866246016
 30
0.0
 10
9.476303572934743
 20
54.98115734845089
 30
0.0
 10
9.495957842678093
 20
54.94190048539647
 30
0.0
 10
9.495957842678093
 20
54.94190048539647
 30
0.0
 10
9.134119463862303
 20
54.94190048539647
 30
0.0
 10
9.134119463862303
 20
54.94190048539647
 30
0.0
 10
9.128469507266493
 20
54.955904798544
 30
0.0
 10
9.123491344290308
 20
54.97555906828735
 30
0.0
 10
9.119288327798301
 20
55.00082884367166
 30
0.0
 10
9.115050860351445
 20
55.02608139357854
 30
0.0
 10
9.112932126628015
 20
55.04079195130056
 30
0.0
 10
9.112932126628015
 20
55.04501219326999
 30
0.0
 10
9.069558374468722
 20
54.99871010994823
 30
0.0
 10
9.016400551131316
 20
54.96468979203139
 30
0.0
 10
8.953458656615801
 20
54.94295123951947
 30
0.0
 10
8.89049953662286
 20
54.92121268700754
 30
0.0
 10
8.824043644712392
 20
54.91032618527415
 30
0.0
 10
8.754090980884394
 20
54.91032618527415
 30
0.0
 10
8.64357231771758
 20
54.91032618527415
 30
0.0
 10
8.554034286055936
 20
54.93804197845299
 30
0.0
 10
8.485511336854316
 20
54.99345633933323
 30
0.0
 10
8.416953936697844
 20
55.04885347473605
 30
0.0
 10
8.382692462097035
 20
55.13129460969807
 30
0.0
 10
8.382692462097035
 20
55.24074529326446
 30
0.0
 10
8.382692462097035
 20
55.41610065346368
 30
0.0
 10
8.490713431037044
 20
55.52553411155264
 30
0.0
 10
8.706772594394486
 20
55.56902844205392
 30
0.0
 10
8.852672388194817
 20
55.59007797546879
 30
0.0
 10
8.949117836304387
 20
55.60549477776529
 30
0.0
 10
8.996143389678046
 20
55.61533052537568
 30
0.0
 10
9.043134492096854
 20
55.62513182203121
 30
0.0
 10
9.074347057193219
 20
55.6370690778876
 30
0.0
 10
9.089781084967138
 20
55.65110784199
 30
0.0
 10
9.105215112741057
 20
55.66511215513754
 30
0.0
 10
9.112932126628015
 20
55.68826319679842
 30
0.0
 10
9.112932126628015
 20
55.72056096697263
 30
0.0
 10
9.112932126628015
 20
55.757027302684
 30
0.0
 10
9.094690346033618
 20
55.78507037993393
 30
0.0
 10
9.058224010322249
 20
55.80474187515471
 30
0.0
 10
9.021723223656027
 20
55.82436169394321
 30
0.0
 10
8.982466360601604
 20
55.8341974415536
 30
0.0
 10
8.940367293771851
 20
55.8341974415536
 30
0.0
 10
8.837944604995375
 20
55.8341974415536
 30
0.0
 10
8.778327227623127
 20
55.78858437732889
 30
0.0
 10
8.76149793617768
 20
55.69740992531175
 30
0.0
 10
8.76149793617768
 20
55.69740992531175
 30
0.0
 10
8.42689303717279
 20
55.69740992531175
 30
0.0
 10
8.42689303717279
 20
55.69740992531175
 30
0.0
  0
SPLINE
  5
43
330
1F
100
AcDbEntity
  8
Layer 1
370
     0
100
AcDbSpline
210
0.0
220
0.0
230
1.0
 70
    11
 71
     3
 72
    29
 73
    25
 74
     0
 42
0.0000000001
 43
0.0000000001
 40
0.0
 40
0.0
 40
0.0
 40
0.0
 40
1.0
 40
1.0
 40
1.0
 40
2.0
 40
2.0
 40
2.0
 40
3.0
 40
3.0
 40
3.0
 40
4.0
 40
4.0
 40
4.0
 40
5.0
 40
5.0
 40
5.0
 40
6.0
 40
6.0
 40
6.0
 40
7.0
 40
7.0
 40
7.0
 40
8.0
 40
8.0
 40
8.0
 40
8.0
 10
8.891584741700715
 20
55.13129460969807
 30
0.0
 10
8.975300561992285
 20
55.13129460969807
 30
0.0
 10
9.033092038757351
 20
55.15618542457901
 30
0.0
 10
9.065045299383044
 20
55.20601873077315
 30
0.0
 10
9.096964109053884
 20
55.25580036053501
 30
0.0
 10
9.112932126628015
 20
55.33822427001961
 30
0.0
 10
9.112932126628015
 20
55.45329045922695
 30
0.0
 10
9.091624211051746
 20
55.44066418427351
 30
0.0
 10
9.049404565880009
 20
55.42767617429412
 30
0.0
 10
8.986273191112806
 20
55.4143436547662
 30
0.0
 10
8.923141816345602
 20
55.40099390976086
 30
0.0
 10
8.879871417050865
 20
55.39153712265385
 30
0.0
 10
8.856461993228592
 20
55.38593884249032
 30
0.0
 10
8.83305256940632
 20
55.38030611137194
 30
0.0
 10
8.807868921409144
 20
55.36700804279887
 30
0.0
 10
8.780893823759637
 20
55.34595850938399
 30
0.0
 10
8.75391872611013
 20
55.32490897596912
 30
0.0
 10
8.740448402762803
 20
55.29472993951833
 30
0.0
 10
8.740448402762803
 20
55.25545585098648
 30
0.0
 10
8.740448402762803
 20
55.21337400963415
 30
0.0
 10
8.754624970684606
 20
55.18214421906036
 30
0.0
 10
8.782995332005639
 20
55.16181815569739
 30
0.0
 10
8.811365693326671
 20
55.14145764137956
 30
0.0
 10
8.847573646876647
 20
55.13129460969807
 30
0.0
 10
8.891584741700715
 20
55.13129460969807
 30
0.0
  0
SPLINE
  5
44
330
1F
100
AcDbEntity
  8
Layer 1
370
     0
100
AcDbSpline
210
0.0
220
0.0
230
1.0
 70
    11
 71
     3
 72
    62
 73
    58
 74
     0
 42
0.0000000001
 43
0.0000000001
 40
0.0
 40
0.0
 40
0.0
 40
0.0
 40
1.0
 40
1.0
 40
1.0
 40
2.0
 40
2.0
 40
2.0
 40
3.0
 40
3.0
 40
3.0
 40
4.0
 40
4.0
 40
4.0
 40
5.0
 40
5.0
 40
5.0
 40
6.0
 40
6.0
 40
6.0
 40
7.0
 40
7.0
 40
7.0
 40
8.0
 40
8.0
 40
8.0
 40
9.0
 40
9.0
 40
9.0
 40
10.0
 40
10.0
 40
10.0
 40
11.0
 40
11.0
 40
11.0
 40
12.0
 40
12.0
 40
12.0
 40
13.0
 40
13.0
 40
13.0
 40
14.0
 40
14.0
 40
14.0
 40
15.0
 40
15.0
 40
15.0
 40
16.0
 40
16.0
 40
16.0
 40
17.0
 40
17.0
 40
17.0
 40
18.0
 40
18.0
 40
18.0
 40
19.0
 40
19.0
 40
19.0
 40
19.0
 10
10.34824001477405
 20
55.80264036690871
 30
0.0
 10
10.34824001477405
 20
55.80264036690871
 30
0.0
 10
10.12727159035013
 20
55.80264036690871
 30
0.0
 10
10.12727159035013
 20
55.80264036690871
 30
0.0
 10
10.12727159035013
 20
55.80264036690871
 30
0.0
 10
10.12727159035013
 20
55.30597817627767
 30
0.0
 10
10.12727159035013
 20
55.30597817627767
 30
0.0
 10
10.12727159035013
 20
55.26527437311944
 30
0.0
 10
10.13810641565124
 20
55.23757580541803
 30
0.0
 10
10.15987941911802
 20
55.22283079674116
 30
0.0
 10
10.18161797162994
 20
55.20812023901915
 30
0.0
 10
10.21355400677821
 20
55.20074773468071
 30
0.0
 10
10.25563584813053
 20
55.20074773468071
 30
0.0
 10
10.25563584813053
 20
55.20074773468071
 30
0.0
 10
10.34824001477405
 20
55.20074773468071
 30
0.0
 10
10.34824001477405
 20
55.20074773468071
 30
0.0
 10
10.34824001477405
 20
55.20074773468071
 30
0.0
 10
10.34824001477405
 20
54.94190048539647
 30
0.0
 10
10.34824001477405
 20
54.94190048539647
 30
0.0
 10
10.31876722289774
 20
54.94190048539647
 30
0.0
 10
10.28088839803742
 20
54.94016071217641
 30
0.0
 10
10.23458631471566
 20
54.93662948930403
 30
0.0
 10
10.18830145687133
 20
54.93314994286393
 30
0.0
 10
10.16093017324102
 20
54.93137571868903
 30
0.0
 10
10.15250691477958
 20
54.93137571868903
 30
0.0
 10
10.00099161533829
 20
54.93137571868903
 30
0.0
 10
9.899257945658865
 20
54.95800630679001
 30
0.0
 10
9.847374807651002
 20
55.01133638490167
 30
0.0
 10
9.795439993210861
 20
55.06464923753592
 30
0.0
 10
9.76949842420693
 20
55.16634845626049
 30
0.0
 10
9.76949842420693
 20
55.31648571750768
 30
0.0
 10
9.76949842420693
 20
55.31648571750768
 30
0.0
 10
9.76949842420693
 20
55.80264036690871
 30
0.0
 10
9.76949842420693
 20
55.80264036690871
 30
0.0
 10
9.76949842420693
 20
55.80264036690871
 30
0.0
 10
9.58851033288933
 20
55.80264036690871
 30
0.0
 10
9.58851033288933
 20
55.80264036690871
 30
0.0
 10
9.58851033288933
 20
55.80264036690871
 30
0.0
 10
9.58851033288933
 20
56.03411633256265
 30
0.0
 10
9.58851033288933
 20
56.03411633256265
 30
0.0
 10
9.58851033288933
 20
56.03411633256265
 30
0.0
 10
9.76949842420693
 20
56.03411633256265
 30
0.0
 10
9.76949842420693
 20
56.03411633256265
 30
0.0
 10
9.76949842420693
 20
56.03411633256265
 30
0.0
 10
9.76949842420693
 20
56.36451821507553
 30
0.0
 10
9.76949842420693
 20
56.36451821507553
 30
0.0
 10
9.76949842420693
 20
56.36451821507553
 30
0.0
 10
10.12727159035013
 20
56.36451821507553
 30
0.0
 10
10.12727159035013
 20
56.36451821507553
 30
0.0
 10
10.12727159035013
 20
56.36451821507553
 30
0.0
 10
10.12727159035013
 20
56.03411633256265
 30
0.0
 10
10.12727159035013
 20
56.03411633256265
 30
0.0
 10
10.12727159035013
 20
56.03411633256265
 30
0.0
 10
10.34824001477405
 20
56.03411633256265
 30
0.0
 10
10.34824001477405
 20
56.03411633256265
 30
0.0
 10
10.34824001477405
 20
56.03411633256265
 30
0.0
 10
10.34824001477405
 20
55.80264036690871
 30
0.0
 10
10.34824001477405
 20
55.80264036690871
 30
0.0
  0
SPLINE
  5
45
330
1F
100
AcDbEntity
  8
Layer 1
370
     0
100
AcDbSpline
210
0.0
220
0.0
230
1.0
 70
    11
 71
     3
 72
    47
 73
    43
 74
     0
 42
0.0000000001
 43
0.0000000001
 40
0.0
 40
0.0
 40
0.0
 40
0.0
 40
1.0
 40
1.0
 40
1.0
 40
2.0
 40
2.0
 40
2.0
 40
3.0
 40
3.0
 40
3.0
 40
4.0
 40
4.0
 40
4.0
 40
5.0
 40
5.0
 40
5.0
 40
6.0
 40
6.0
 40
6.0
 40
7.0
 40
7.0
 40
7.0
 40
8.0
 40
8.0
 40
8.0
 40
9.0
 40
9.0
 40
9.0
 40
10.0
 40
10.0
 40
10.0
 40
11.0
 40
11.0
 40
11.0
 40
12.0
 40
12.0
 40
12.0
 40
13.0
 40
13.0
 40
13.0
 40
14.0
 40
14.0
 40
14.0
 40
14.0
 10
10.81331067980535
 20
55.40066662568976
 30
0.0
 10
10.81331067980535
 20
55.32490897596912
 30
0.0
 10
10.83485975206559
 20
55.26456812854497
 30
0.0
 10
10.87792344563121
 20
55.21967853437216
 30
0.0
 10
10.92100436467426
 20
55.17477171472193
 30
0.0
 10
10.98010497772372
 20
55.15234414311295
 30
0.0
 10
11.05513915739246
 20
55.15234414311295
 30
0.0
 10
11.10097615282371
 20
55.15234414311295
 30
0.0
 10
11.14199001457561
 20
55.16250717479444
 30
0.0
 10
11.17812906621588
 20
55.18286768911226
 30
0.0
 10
11.21425089237873
 20
55.20319375247524
 30
0.0
 10
11.24065754927317
 20
55.23299382842265
 30
0.0
 10
11.25736626237663
 20
55.27230236790935
 30
0.0
 10
11.25736626237663
 20
55.27230236790935
 30
0.0
 10
11.59619140335095
 20
55.27230236790935
 30
0.0
 10
11.59619140335095
 20
55.27230236790935
 30
0.0
 10
11.56530612232569
 20
55.15162067306105
 30
0.0
 10
11.49971150428653
 20
55.06111801466353
 30
0.0
 10
11.39942477471091
 20
55.00082884367166
 30
0.0
 10
11.299086368703
 20
54.94050522172494
 30
0.0
 10
11.18369289542456
 20
54.91032618527415
 30
0.0
 10
11.05322712939815
 20
54.91032618527415
 30
0.0
 10
10.87223903808055
 20
54.91032618527415
 30
0.0
 10
10.72735554744837
 20
54.96189926468834
 30
0.0
 10
10.61864555941131
 20
55.06501097256186
 30
0.0
 10
10.50991834589682
 20
55.16813990591282
 30
0.0
 10
10.45555473913958
 20
55.31018119276968
 30
0.0
 10
10.45555473913958
 20
55.49116928408727
 30
0.0
 10
10.45555473913958
 20
55.6566888966761
 30
0.0
 10
10.51270887323988
 20
55.79383814794389
 30
0.0
 10
10.62706881787275
 20
55.90259981241324
 30
0.0
 10
10.74139431155076
 20
56.01130980045029
 30
0.0
 10
10.88066229654199
 20
56.06569063268496
 30
0.0
 10
11.04480387093671
 20
56.06569063268496
 30
0.0
 10
11.23139024241785
 20
56.06569063268496
 30
0.0
 10
11.3731042452036
 20
56.00361001204076
 30
0.0
 10
11.46991142833912
 20
55.87944877075235
 30
0.0
 10
11.56671861147464
 20
55.75527030398653
 30
0.0
 10
11.6151222030424
 20
55.5956590301549
 30
0.0
 10
11.6151222030424
 20
55.40066662568976
 30
0.0
 10
11.6151222030424
 20
55.40066662568976
 30
0.0
 10
10.81331067980535
 20
55.40066662568976
 30
0.0
 10
10.81331067980535
 20
55.40066662568976
 30
0.0
  0
SPLINE
  5
46
330
1F
100
AcDbEntity
  8
Layer 1
370
     0
100
AcDbSpline
210
0.0
220
0.0
230
1.0
 70
    11
 71
     3
 72
    20
 73
    16
 74
     0
 42
0.0000000001
 43
0.0000000001
 40
0.0
 40
0.0
 40
0.0
 40
0.0
 40
1.0
 40
1.0
 40
1.0
 40
2.0
 40
2.0
 40
2.0
 40
3.0
 40
3.0
 40
3.0
 40
4.0
 40
4.0
 40
4.0
 40
5.0
 40
5.0
 40
5.0
 40
5.0
 10
11.25736626237663
 20
55.60060274217624
 30
0.0
 10
11.25736626237663
 20
55.66232162779448
 30
0.0
 10
11.2370057480588
 20
55.71492823585425
 30
0.0
 10
11.19633639585543
 20
55.75843979183296
 30
0.0
 10
11.1556325926972
 20
55.80189967137938
 30
0.0
 10
11.10512749288344
 20
55.82367267484616
 30
0.0
 10
11.04480387093671
 20
55.82367267484616
 30
0.0
 10
10.98168972164694
 20
55.82367267484616
 30
0.0
 10
10.93011664223275
 20
55.80367389555428
 30
0.0
 10
10.890119083649
 20
55.76369356244796
 30
0.0
 10
10.8501559760201
 20
55.72371322934163
 30
0.0
 10
10.82454169108727
 20
55.66931517162954
 30
0.0
 10
10.81331067980535
 20
55.60060274217624
 30
0.0
 10
10.81331067980535
 20
55.60060274217624
 30
0.0
 10
11.25736626237663
 20
55.60060274217624
 30
0.0
 10
11.25736626237663
 20
55.60060274217624
 30
0.0
  0
SPLINE
  5
47
330
1F
100
AcDbEntity
  8
Layer 1
370
     0
100
AcDbSpline
210
0.0
220
0.0
230
1.0
 70
    11
 71
     3
 72
    50
 73
    46
 74
     0
 42
0.0000000001
 43
0.0000000001
 40
0.0
 40
0.0
 40
0.0
 40
0.0
 40
1.0
 40
1.0
 40
1.0
 40
2.0
 40
2.0
 40
2.0
 40
3.0
 40
3.0
 40
3.0
 40
4.0
 40
4.0
 40
4.0
 40
5.0
 40
5.0
 40
5.0
 40
6.0
 40
6.0
 40
6.0
 40
7.0
 40
7.0
 40
7.0
 40
8.0
 40
8.0
 40
8.0
 40
9.0
 40
9.0
 40
9.0
 40
10.0
 40
10.0
 40
10.0
 40
11.0
 40
11.0
 40
11.0
 40
12.0
 40
12.0
 40
12.0
 40
13.0
 40
13.0
 40
13.0
 40
14.0
 40
14.0
 40
14.0
 40
15.0
 40
15.0
 40
15.0
 40
15.0
 10
3.588635388642771
 20
51.79790634555746
 30
0.0
 10
3.505866969609644
 20
51.56682656588433
 30
0.0
 10
3.39887952931521
 20
51.41780896066985
 30
0.0
 10
3.267707518714323
 20
51.35075017704946
 30
0.0
 10
3.136449380726304
 20
51.28374306986135
 30
0.0
 10
2.933912217148466
 20
51.25018783983502
 30
0.0
 10
2.66004435154853
 20
51.25018783983502
 30
0.0
 10
2.66004435154853
 20
51.25018783983502
 30
0.0
 10
2.31772243865668
 20
51.25018783983502
 30
0.0
 10
2.31772243865668
 20
51.25018783983502
 30
0.0
 10
2.31772243865668
 20
51.25018783983502
 30
0.0
 10
2.31772243865668
 20
51.84071165696169
 30
0.0
 10
2.31772243865668
 20
51.84071165696169
 30
0.0
 10
2.31772243865668
 20
51.84071165696169
 30
0.0
 10
2.570196261293215
 20
51.84071165696169
 30
0.0
 10
2.570196261293215
 20
51.84071165696169
 30
0.0
 10
2.658562960489873
 20
51.84071165696169
 30
0.0
 10
2.729170192460068
 20
51.862829169977
 30
0.0
 10
2.782017957203801
 20
51.90702974505275
 30
0.0
 10
2.83474514360555
 20
51.95128199656079
 30
0.0
 10
2.861186251454842
 20
52.01188122614633
 30
0.0
 10
2.861186251454842
 20
52.08889633571909
 30
0.0
 10
2.861186251454842
 20
52.14591266599998
 30
0.0
 10
2.834021673553647
 20
52.24723292422117
 30
0.0
 10
2.779881998002946
 20
52.39270208108585
 30
0.0
 10
2.725638969587687
 20
52.53820568890538
 30
0.0
 10
2.691429171419156
 20
52.6308787574586
 30
0.0
 10
2.677166476110222
 20
52.67087631604235
 30
0.0
 10
2.677166476110222
 20
52.67087631604235
 30
0.0
 10
2.103764783545239
 20
54.21565713162838
 30
0.0
 10
2.103764783545239
 20
54.21565713162838
 30
0.0
 10
2.103764783545239
 20
54.21565713162838
 30
0.0
 10
2.874019232137398
 20
54.21565713162838
 30
0.0
 10
2.874019232137398
 20
54.21565713162838
 30
0.0
 10
2.874019232137398
 20
54.21565713162838
 30
0.0
 10
3.293390705556861
 20
52.76930269405594
 30
0.0
 10
3.293390705556861
 20
52.76930269405594
 30
0.0
 10
3.293390705556861
 20
52.76930269405594
 30
0.0
 10
3.721288790302316
 20
54.21565713162838
 30
0.0
 10
3.721288790302316
 20
54.21565713162838
 30
0.0
 10
3.721288790302316
 20
54.21565713162838
 30
0.0
 10
4.465877277529364
 20
54.21565713162838
 30
0.0
 10
4.465877277529364
 20
54.21565713162838
 30
0.0
 10
4.465877277529364
 20
54.21565713162838
 30
0.0
 10
3.588635388642771
 20
51.79790634555746
 30
0.0
 10
3.588635388642771
 20
51.79790634555746
 30
0.0
  0
SPLINE
  5
48
330
1F
100
AcDbEntity
  8
Layer 1
370
     0
100
AcDbSpline
210
0.0
220
0.0
230
1.0
 70
    11
 71
     3
 72
    62
 73
    58
 74
     0
 42
0.0000000001
 43
0.0000000001
 40
0.0
 40
0.0
 40
0.0
 40
0.0
 40
1.0
 40
1.0
 40
1.0
 40
2.0
 40
2.0
 40
2.0
 40
3.0
 40
3.0
 40
3.0
 40
4.0
 40
4.0
 40
4.0
 40
5.0
 40
5.0
 40
5.0
 40
6.0
 40
6.0
 40
6.0
 40
7.0
 40
7.0
 40
7.0
 40
8.0
 40
8.0
 40
8.0
 40
9.0
 40
9.0
 40
9.0
 40
10.0
 40
10.0
 40
10.0
 40
11.0
 40
11.0
 40
11.0
 40
12.0
 40
12.0
 40
12.0
 40
13.0
 40
13.0
 40
13.0
 40
14.0
 40
14.0
 40
14.0
 40
15.0
 40
15.0
 40
15.0
 40
16.0
 40
16.0
 40
16.0
 40
17.0
 40
17.0
 40
17.0
 40
18.0
 40
18.0
 40
18.0
 40
19.0
 40
19.0
 40
19.0
 40
19.0
 10
4.622215710650002
 20
53.37066133648372
 30
0.0
 10
4.663367376221311
 20
53.47060355651082
 30
0.0
 10
4.681023490583216
 20
53.51175522208213
 30
0.0
 10
4.739814045039004
 20
53.6058407797843
 30
0.0
 10
4.798604599494793
 20
53.69992633748647
 30
0.0
 10
4.910329046081445
 20
53.87042411305148
 30
0.0
 10
4.910329046081445
 20
53.87042411305148
 30
0.0
 10
4.910329046081445
 20
53.87042411305148
 30
0.0
 10
5.368940157077904
 20
53.45885578090611
 30
0.0
 10
5.368940157077904
 20
53.45885578090611
 30
0.0
 10
5.368940157077904
 20
53.28770343719891
 30
0.0
 10
5.330217283823695
 20
52.78639036766278
 30
0.0
 10
5.39867133111561
 20
52.66660439764064
 30
0.0
 10
5.46714260388495
 20
52.54678397666365
 30
0.0
 10
5.579814451730046
 20
52.4868393152203
 30
0.0
 10
5.736738551083176
 20
52.4868393152203
 30
0.0
 10
5.890768770228696
 20
52.4868393152203
 30
0.0
 10
6.003457843551218
 20
52.54816201485774
 30
0.0
 10
6.074788545573316
 20
52.67087631604235
 30
0.0
 10
6.146067571163136
 20
52.79350448983981
 30
0.0
 10
6.18177598586775
 20
52.93759560851039
 30
0.0
 10
6.18177598586775
 20
53.10306354466694
 30
0.0
 10
6.18177598586775
 20
53.26847980439121
 30
0.0
 10
6.146808266692464
 20
53.41331161859111
 30
0.0
 10
6.076941730251598
 20
53.53740395796981
 30
0.0
 10
6.0069890664236
 20
53.66149629734851
 30
0.0
 10
5.678637015724438
 20
53.69403522420669
 30
0.0
 10
5.521799043758438
 20
53.69403522420669
 30
0.0
 10
5.521799043758438
 20
53.69403522420669
 30
0.0
 10
5.121995712695195
 20
54.03506522629158
 30
0.0
 10
5.121995712695195
 20
54.03506522629158
 30
0.0
 10
5.121995712695195
 20
54.03506522629158
 30
0.0
 10
5.280745712655508
 20
54.1467724474008
 30
0.0
 10
5.404217934846862
 20
54.19968911405424
 30
0.0
 10
5.527690157038216
 20
54.25260578070768
 30
0.0
 10
5.692968612943077
 20
54.2835944145975
 30
0.0
 10
5.736738551083176
 20
54.27985648599601
 30
0.0
 10
6.074960800347579
 20
54.25096936035219
 30
0.0
 10
6.356476777924769
 20
54.1678392062931
 30
0.0
 10
6.577583006168104
 20
53.94392522522929
 30
0.0
 10
6.798637557979159
 20
53.71994234225578
 30
0.0
 10
6.90922512305568
 20
53.43963214809842
 30
0.0
 10
6.90922512305568
 20
53.10306354466694
 30
0.0
 10
6.90922512305568
 20
52.76640881384832
 30
0.0
 10
6.799395478985915
 20
52.4868393152203
 30
0.0
 10
6.579736190846385
 20
52.26435504878287
 30
0.0
 10
6.360025226274576
 20
52.04183633139058
 30
0.0
 10
6.079077689452452
 20
51.93055974721701
 30
0.0
 10
5.736738551083176
 20
51.93055974721701
 30
0.0
 10
5.394416638191326
 20
51.93055974721701
 30
0.0
 10
5.114106444033973
 20
52.04109563586125
 30
0.0
 10
4.895876870520822
 20
52.26220186410458
 30
0.0
 10
4.677647297007671
 20
52.48325641591564
 30
0.0
 10
4.568523897512383
 20
52.76353215911814
 30
0.0
 10
4.568523897512383
 20
53.10306354466694
 30
0.0
 10
4.568523897512383
 20
53.10306354466694
 30
0.0
 10
4.581064045078692
 20
53.27071911645663
 30
0.0
 10
4.622215710650002
 20
53.37066133648372
 30
0.0
  0
SPLINE
  5
49
330
1F
100
AcDbEntity
  8
Layer 1
370
     0
100
AcDbSpline
210
0.0
220
0.0
230
1.0
 70
    11
 71
     3
 72
    62
 73
    58
 74
     0
 42
0.0000000001
 43
0.0000000001
 40
0.0
 40
0.0
 40
0.0
 40
0.0
 40
1.0
 40
1.0
 40
1.0
 40
2.0
 40
2.0
 40
2.0
 40
3.0
 40
3.0
 40
3.0
 40
4.0
 40
4.0
 40
4.0
 40
5.0
 40
5.0
 40
5.0
 40
6.0
 40
6.0
 40
6.0
 40
7.0
 40
7.0
 40
7.0
 40
8.0
 40
8.0
 40
8.0
 40
9.0
 40
9.0
 40
9.0
 40
10.0
 40
10.0
 40
10.0
 40
11.0
 40
11.0
 40
11.0
 40
12.0
 40
12.0
 40
12.0
 40
13.0
 40
13.0
 40
13.0
 40
14.0
 40
14.0
 40
14.0
 40
15.0
 40
15.0
 40
15.0
 40
16.0
 40
16.0
 40
16.0
 40
17.0
 40
17.0
 40
17.0
 40
18.0
 40
18.0
 40
18.0
 40
19.0
 40
19.0
 40
19.0
 40
19.0
 10
6.237086993883437
 20
55.6284046627422
 30
0.0
 10
6.257034096743033
 20
55.67682547978739
 30
0.0
 10
6.265595159023879
 20
55.69677258264699
 30
0.0
 10
6.294068873209469
 20
55.74235119591684
 30
0.0
 10
6.322577038349911
 20
55.78794703466412
 30
0.0
 10
6.376699488423186
 20
55.87057764987784
 30
0.0
 10
6.376699488423186
 20
55.87057764987784
 30
0.0
 10
6.376699488423186
 20
55.87057764987784
 30
0.0
 10
6.598925372699227
 20
55.67114107223672
 30
0.0
 10
6.598925372699227
 20
55.67114107223672
 30
0.0
 10
6.598925372699227
 20
55.58820039842934
 30
0.0
 10
6.580149602304615
 20
55.3453039412418
 30
0.0
 10
6.613343097304997
 20
55.28725408231534
 30
0.0
 10
6.646519366827953
 20
55.22918699791145
 30
0.0
 10
6.701106904791737
 20
55.20014484297079
 30
0.0
 10
6.7771401621512
 20
55.20014484297079
 30
0.0
 10
6.851795381316564
 20
55.20014484297079
 30
0.0
 10
6.906382919280349
 20
55.22985879153107
 30
0.0
 10
6.940937226997404
 20
55.28932113960649
 30
0.0
 10
6.97549153471446
 20
55.34873181124962
 30
0.0
 10
6.992785914050414
 20
55.41854667125821
 30
0.0
 10
6.992785914050414
 20
55.4987312686774
 30
0.0
 10
6.992785914050414
 20
55.57886418966431
 30
0.0
 10
6.975818818785559
 20
55.64905801017628
 30
0.0
 10
6.942005206597831
 20
55.70919215187131
 30
0.0
 10
6.908105467022973
 20
55.76932629356634
 30
0.0
 10
6.748993732036709
 20
55.78508760541136
 30
0.0
 10
6.672994925632098
 20
55.78508760541136
 30
0.0
 10
6.672994925632098
 20
55.78508760541136
 30
0.0
 10
6.4792772064965
 20
55.95031438488395
 30
0.0
 10
6.4792772064965
 20
55.95031438488395
 30
0.0
 10
6.4792772064965
 20
55.95031438488395
 30
0.0
 10
6.556188963204702
 20
56.00443683495722
 30
0.0
 10
6.616013046306065
 20
56.0300855708449
 30
0.0
 10
6.675837129407429
 20
56.05573430673259
 30
0.0
 10
6.755935599439487
 20
56.07075492304828
 30
0.0
 10
6.7771401621512
 20
56.06894624791853
 30
0.0
 10
6.941006128907109
 20
56.05492470929356
 30
0.0
 10
7.077449135600429
 20
56.01468599402584
 30
0.0
 10
7.184574379714273
 20
55.90616548624047
 30
0.0
 10
7.29168239835069
 20
55.7976449784551
 30
0.0
 10
7.345270858623751
 20
55.66182208894912
 30
0.0
 10
7.345270858623751
 20
55.4987312686774
 30
0.0
 10
7.345270858623751
 20
55.33560599745082
 30
0.0
 10
7.292061358854068
 20
55.20014484297079
 30
0.0
 10
7.185625133837274
 20
55.0923305797599
 30
0.0
 10
7.079154457865627
 20
54.984516316549
 30
0.0
 10
6.943038735243406
 20
54.93060057220485
 30
0.0
 10
6.7771401621512
 20
54.93060057220485
 30
0.0
 10
6.611276040013847
 20
54.93060057220485
 30
0.0
 10
6.475453150507873
 20
54.98418903247791
 30
0.0
 10
6.369705944588128
 20
55.09129705111432
 30
0.0
 10
6.263975964145811
 20
55.19840506975074
 30
0.0
 10
6.2110765229698
 20
55.33421073377929
 30
0.0
 10
6.2110765229698
 20
55.4987312686774
 30
0.0
 10
6.2110765229698
 20
55.4987312686774
 30
0.0
 10
6.217157116501266
 20
55.57998384569701
 30
0.0
 10
6.237086993883437
 20
55.6284046627422
 30
0.0
  0
SPLINE
  5
4A
330
1F
100
AcDbEntity
  8
Layer 1
370
     0
100
AcDbSpline
210
0.0
220
0.0
230
1.0
 70
    11
 71
     3
 72
    50
 73
    46
 74
     0
 42
0.0000000001
 43
0.0000000001
 40
0.0
 40
0.0
 40
0.0
 40
0.0
 40
1.0
 40
1.0
 40
1.0
 40
2.0
 40
2.0
 40
2.0
 40
3.0
 40
3.0
 40
3.0
 40
4.0
 40
4.0
 40
4.0
 40
5.0
 40
5.0
 40
5.0
 40
6.0
 40
6.0
 40
6.0
 40
7.0
 40
7.0
 40
7.0
 40
8.0
 40
8.0
 40
8.0
 40
9.0
 40
9.0
 40
9.0
 40
10.0
 40
10.0
 40
10.0
 40
11.0
 40
11.0
 40
11.0
 40
12.0
 40
12.0
 40
12.0
 40
13.0
 40
13.0
 40
13.0
 40
14.0
 40
14.0
 40
14.0
 40
15.0
 40
15.0
 40
15.0
 40
15.0
 10
9.498076576401521
 20
51.99475910158464
 30
0.0
 10
9.498076576401521
 20
51.99475910158464
 30
0.0
 10
8.792021482176994
 20
51.99475910158464
 30
0.0
 10
8.792021482176994
 20
51.99475910158464
 30
0.0
 10
8.792021482176994
 20
51.99475910158464
 30
0.0
 10
8.792021482176994
 20
52.29856484695139
 30
0.0
 10
8.792021482176994
 20
52.29856484695139
 30
0.0
 10
8.720690780154897
 20
52.18732271373268
 30
0.0
 10
8.622247176663882
 20
52.09812919161956
 30
0.0
 10
8.496776799091084
 20
52.03112208443145
 30
0.0
 10
8.371203068653726
 20
51.9641494281982
 30
0.0
 10
8.241426321724365
 20
51.93055974721701
 30
0.0
 10
8.107343205438442
 20
51.93055974721701
 30
0.0
 10
7.804932723743211
 20
51.93055974721701
 30
0.0
 10
7.592387557780722
 20
52.01112330513958
 30
0.0
 10
7.469759383983254
 20
52.17233654837185
 30
0.0
 10
7.347062308276081
 20
52.33348088969441
 30
0.0
 10
7.28575683411606
 20
52.56955605782115
 30
0.0
 10
7.28575683411606
 20
52.88054482727465
 30
0.0
 10
7.28575683411606
 20
52.88054482727465
 30
0.0
 10
7.28575683411606
 20
54.21565713162838
 30
0.0
 10
7.28575683411606
 20
54.21565713162838
 30
0.0
 10
7.28575683411606
 20
54.21565713162838
 30
0.0
 10
8.01320597130399
 20
54.21565713162838
 30
0.0
 10
8.01320597130399
 20
54.21565713162838
 30
0.0
 10
8.01320597130399
 20
54.21565713162838
 30
0.0
 10
8.01320597130399
 20
52.92760483160316
 30
0.0
 10
8.01320597130399
 20
52.92760483160316
 30
0.0
 10
8.01320597130399
 20
52.66229802828408
 30
0.0
 10
8.133043617758405
 20
52.52966185210195
 30
0.0
 10
8.372650008757532
 20
52.52966185210195
 30
0.0
 10
8.472488875920071
 20
52.52966185210195
 30
0.0
 10
8.56374945532434
 20
52.56816079414962
 30
0.0
 10
8.646552325312319
 20
52.64517590372238
 30
0.0
 10
8.729251842435742
 20
52.72222546424999
 30
0.0
 10
8.770627439213593
 20
52.84912555644917
 30
0.0
 10
8.770627439213593
 20
53.02604843509418
 30
0.0
 10
8.770627439213593
 20
53.02604843509418
 30
0.0
 10
8.770627439213593
 20
54.21565713162838
 30
0.0
 10
8.770627439213593
 20
54.21565713162838
 30
0.0
 10
8.770627439213593
 20
54.21565713162838
 30
0.0
 10
9.498076576401521
 20
54.21565713162838
 30
0.0
 10
9.498076576401521
 20
54.21565713162838
 30
0.0
 10
9.498076576401521
 20
54.21565713162838
 30
0.0
 10
9.498076576401521
 20
51.99475910158464
 30
0.0
 10
9.498076576401521
 20
51.99475910158464
 30
0.0
  0
SPLINE
  5
4B
330
1F
100
AcDbEntity
  8
Layer 1
370
     0
100
AcDbSpline
210
0.0
220
0.0
230
1.0
 70
    11
 71
     3
 72
    41
 73
    37
 74
     0
 42
0.0000000001
 43
0.0000000001
 40
0.0
 40
0.0
 40
0.0
 40
0.0
 40
1.0
 40
1.0
 40
1.0
 40
2.0
 40
2.0
 40
2.0
 40
3.0
 40
3.0
 40
3.0
 40
4.0
 40
4.0
 40
4.0
 40
5.0
 40
5.0
 40
5.0
 40
6.0
 40
6.0
 40
6.0
 40
7.0
 40
7.0
 40
7.0
 40
8.0
 40
8.0
 40
8.0
 40
9.0
 40
9.0
 40
9.0
 40
10.0
 40
10.0
 40
10.0
 40
11.0
 40
11.0
 40
11.0
 40
12.0
 40
12.0
 40
12.0
 40
12.0
 10
10.01156805847801
 20
54.21565713162838
 30
0.0
 10
10.01156805847801
 20
54.21565713162838
 30
0.0
 10
10.71762315270254
 20
54.21565713162838
 30
0.0
 10
10.71762315270254
 20
54.21565713162838
 30
0.0
 10
10.71762315270254
 20
54.21565713162838
 30
0.0
 10
10.71762315270254
 20
53.82624076345316
 30
0.0
 10
10.71762315270254
 20
53.82624076345316
 30
0.0
 10
10.83456691894934
 20
54.1143540988846
 30
0.0
 10
11.05994506559439
 20
54.25844521755518
 30
0.0
 10
11.39372314168282
 20
54.25844521755518
 30
0.0
 10
11.45931775972197
 20
54.25844521755518
 30
0.0
 10
11.51636854095771
 20
54.25269190809481
 30
0.0
 10
11.56489271086746
 20
54.24132309299348
 30
0.0
 10
11.56489271086746
 20
54.24132309299348
 30
0.0
 10
11.56489271086746
 20
53.57807331017319
 30
0.0
 10
11.56489271086746
 20
53.57807331017319
 30
0.0
 10
11.52212185041808
 20
53.58940767431966
 30
0.0
 10
11.47643988428367
 20
53.59945012765916
 30
0.0
 10
11.4279673908062
 20
53.60801118994001
 30
0.0
 10
11.37942599541903
 20
53.61657225222086
 30
0.0
 10
11.33234876561309
 20
53.62084417062256
 30
0.0
 10
11.28677015234324
 20
53.62084417062256
 30
0.0
 10
11.11556613220375
 20
53.62084417062256
 30
0.0
 10
10.9814657904404
 20
53.56949502241491
 30
0.0
 10
10.88452080348547
 20
53.46679672599961
 30
0.0
 10
10.78750691462083
 20
53.36409842958432
 30
0.0
 10
10.73901719566594
 20
53.24000609020562
 30
0.0
 10
10.73901719566594
 20
53.09450248238609
 30
0.0
 10
10.73901719566594
 20
53.09450248238609
 30
0.0
 10
10.73901719566594
 20
51.99475910158464
 30
0.0
 10
10.73901719566594
 20
51.99475910158464
 30
0.0
 10
10.73901719566594
 20
51.99475910158464
 30
0.0
 10
10.01156805847801
 20
51.99475910158464
 30
0.0
 10
10.01156805847801
 20
51.99475910158464
 30
0.0
 10
10.01156805847801
 20
51.99475910158464
 30
0.0
 10
10.01156805847801
 20
54.21565713162838
 30
0.0
 10
10.01156805847801
 20
54.21565713162838
 30
0.0
  0
POLYLINE
  5
4C
330
1F
100
AcDbEntity
  8
Layer 1
370
     0
100
AcDb2dPolyline
 66
     1
 10
0.0
 20
0.0
 30
0.0
  0
VERTEX
  5
4D
330
4C
100
AcDbEntity
  8
Layer 1
370
     0
100
AcDbVertex
100
AcDb2dVertex
 10
2.145502115349041
 20
50.34850299848058
 30
0.0
  0
VERTEX
  5
4E
330
4C
100
AcDbEntity
  8
Layer 1
370
     0
100
AcDbVertex
100
AcDb2dVertex
 10
3.111059027000013
 20
50.34850299848058
 30
0.0
  0
VERTEX
  5
4F
330
4C
100
AcDbEntity
  8
Layer 1
370
     0
100
AcDbVertex
100
AcDb2dVertex
 10
3.544503715476721
 20
48.67112045766729
 30
0.0
  0
VERTEX
  5
50
330
4C
100
AcDbEntity
  8
Layer 1
370
     0
100
AcDbVertex
100
AcDb2dVertex
 10
3.984993624220765
 20
50.34850299848058
 30
0.0
  0
VERTEX
  5
51
330
4C
100
AcDbEntity
  8
Layer 1
370
     0
100
AcDbVertex
100
AcDb2dVertex
 10
4.950550535871737
 20
50.34850299848058
 30
0.0
  0
VERTEX
  5
52
330
4C
100
AcDbEntity
  8
Layer 1
370
     0
100
AcDbVertex
100
AcDb2dVertex
 10
4.950550535871737
 20
47.83241196178322
 30
0.0
  0
VERTEX
  5
53
330
4C
100
AcDbEntity
  8
Layer 1
370
     0
100
AcDbVertex
100
AcDb2dVertex
 10
4.33386121853459
 20
47.83241196178322
 30
0.0
  0
VERTEX
  5
54
330
4C
100
AcDbEntity
  8
Layer 1
370
     0
100
AcDbVertex
100
AcDb2dVertex
 10
4.33386121853459
 20
49.74237289880572
 30
0.0
  0
VERTEX
  5
55
330
4C
100
AcDbEntity
  8
Layer 1
370
     0
100
AcDbVertex
100
AcDb2dVertex
 10
3.798217772487945
 20
47.83241196178322
 30
0.0
  0
VERTEX
  5
56
330
4C
100
AcDbEntity
  8
Layer 1
370
     0
100
AcDbVertex
100
AcDb2dVertex
 10
3.297817653255406
 20
47.83241196178322
 30
0.0
  0
VERTEX
  5
57
330
4C
100
AcDbEntity
  8
Layer 1
370
     0
100
AcDbVertex
100
AcDb2dVertex
 10
2.769219427476098
 20
49.74237289880572
 30
0.0
  0
VERTEX
  5
58
330
4C
100
AcDbEntity
  8
Layer 1
370
     0
100
AcDbVertex
100
AcDb2dVertex
 10
2.762174207208762
 20
47.83241196178322
 30
0.0
  0
VERTEX
  5
59
330
4C
100
AcDbEntity
  8
Layer 1
370
     0
100
AcDbVertex
100
AcDb2dVertex
 10
2.145502115349041
 20
47.83241196178322
 30
0.0
  0
VERTEX
  5
5A
330
4C
100
AcDbEntity
  8
Layer 1
370
     0
100
AcDbVertex
100
AcDb2dVertex
 10
2.145502115349041
 20
50.34850299848058
 30
0.0
  0
SEQEND
  5
5B
330
4C
100
AcDbEntity
  8
Layer 1
370
     0
  0
POLYLINE
  5
5C
330
1F
100
AcDbEntity
  8
Layer 1
370
     0
100
AcDb2dPolyline
 66
     1
 10
0.0
 20
0.0
 30
0.0
  0
VERTEX
  5
5D
330
5C
100
AcDbEntity
  8
Layer 1
370
     0
100
AcDbVertex
100
AcDb2dVertex
 10
6.000632865253314
 20
49.89037420085206
 30
0.0
  0
VERTEX
  5
5E
330
5C
100
AcDbEntity
  8
Layer 1
370
     0
100
AcDbVertex
100
AcDb2dVertex
 10
5.401582436800646
 20
49.89037420085206
 30
0.0
  0
VERTEX
  5
5F
330
5C
100
AcDbEntity
  8
Layer 1
370
     0
100
AcDbVertex
100
AcDb2dVertex
 10
5.401582436800646
 20
50.34850299848058
 30
0.0
  0
VERTEX
  5
60
330
5C
100
AcDbEntity
  8
Layer 1
370
     0
100
AcDbVertex
100
AcDb2dVertex
 10
6.000632865253314
 20
50.34850299848058
 30
0.0
  0
VERTEX
  5
61
330
5C
100
AcDbEntity
  8
Layer 1
370
     0
100
AcDbVertex
100
AcDb2dVertex
 10
6.000632865253314
 20
49.89037420085206
 30
0.0
  0
SEQEND
  5
62
330
5C
100
AcDbEntity
  8
Layer 1
370
     0
  0
POLYLINE
  5
63
330
1F
100
AcDbEntity
  8
Layer 1
370
     0
100
AcDb2dPolyline
 66
     1
 10
0.0
 20
0.0
 30
0.0
  0
VERTEX
  5
64
330
63
100
AcDbEntity
  8
Layer 1
370
     0
100
AcDbVertex
100
AcDb2dVertex
 10
5.401582436800646
 20
49.66134425299265
 30
0.0
  0
VERTEX
  5
65
330
63
100
AcDbEntity
  8
Layer 1
370
     0
100
AcDbVertex
100
AcDb2dVertex
 10
6.000632865253314
 20
49.66134425299265
 30
0.0
  0
VERTEX
  5
66
330
63
100
AcDbEntity
  8
Layer 1
370
     0
100
AcDbVertex
100
AcDb2dVertex
 10
6.000632865253314
 20
47.83241196178322
 30
0.0
  0
VERTEX
  5
67
330
63
100
AcDbEntity
  8
Layer 1
370
     0
100
AcDbVertex
100
AcDb2dVertex
 10
5.401582436800646
 20
47.83241196178322
 30
0.0
  0
VERTEX
  5
68
330
63
100
AcDbEntity
  8
Layer 1
370
     0
100
AcDbVertex
100
AcDb2dVertex
 10
5.401582436800646
 20
49.66134425299265
 30
0.0
  0
SEQEND
  5
69
330
63
100
AcDbEntity
  8
Layer 1
370
     0
  0
SPLINE
  5
6A
330
1F
100
AcDbEntity
  8
Layer 1
370
     0
100
AcDbSpline
210
0.0
220
0.0
230
1.0
 70
    11
 71
     3
 72
    56
 73
    52
 74
     0
 42
0.0000000001
 43
0.0000000001
 40
0.0
 40
0.0
 40
0.0
 40
0.0
 40
1.0
 40
1.0
 40
1.0
 40
2.0
 40
2.0
 40
2.0
 40
3.0
 40
3.0
 40
3.0
 40
4.0
 40
4.0
 40
4.0
 40
5.0
 40
5.0
 40
5.0
 40
6.0
 40
6.0
 40
6.0
 40
7.0
 40
7.0
 40
7.0
 40
8.0
 40
8.0
 40
8.0
 40
9.0
 40
9.0
 40
9.0
 40
10.0
 40
10.0
 40
10.0
 40
11.0
 40
11.0
 40
11.0
 40
12.0
 40
12.0
 40
12.0
 40
13.0
 40
13.0
 40
13.0
 40
14.0
 40
14.0
 40
14.0
 40
15.0
 40
15.0
 40
15.0
 40
16.0
 40
16.0
 40
16.0
 40
17.0
 40
17.0
 40
17.0
 40
17.0
 10
6.423483885112878
 20
49.66134425299265
 30
0.0
 10
6.423483885112878
 20
49.66134425299265
 30
0.0
 10
7.00492987563592
 20
49.66134425299265
 30
0.0
 10
7.00492987563592
 20
49.66134425299265
 30
0.0
 10
7.00492987563592
 20
49.66134425299265
 30
0.0
 10
7.00492987563592
 20
49.41112696789895
 30
0.0
 10
7.00492987563592
 20
49.41112696789895
 30
0.0
 10
7.06132608872946
 20
49.50274928232917
 30
0.0
 10
7.143508841530094
 20
49.57614704164241
 30
0.0
 10
7.251598712379808
 20
49.63137192227097
 30
0.0
 10
7.359636906797243
 20
49.68654512646725
 30
0.0
 10
7.471240775041911
 20
49.71419201773638
 30
0.0
 10
7.586358640681535
 20
49.71419201773638
 30
0.0
 10
7.854197589182284
 20
49.71419201773638
 30
0.0
 10
8.030948213053026
 20
49.6442565793858
 30
0.0
 10
8.116731090635747
 20
49.50452350650407
 30
0.0
 10
8.202462291786189
 20
49.36472153171263
 30
0.0
 10
8.24535373057755
 20
49.19847844907191
 30
0.0
 10
8.24535373057755
 20
49.00588038596901
 30
0.0
 10
8.24535373057755
 20
49.00588038596901
 30
0.0
 10
8.24535373057755
 20
47.83241196178322
 30
0.0
 10
8.24535373057755
 20
47.83241196178322
 30
0.0
 10
8.24535373057755
 20
47.83241196178322
 30
0.0
 10
7.646286076647455
 20
47.83241196178322
 30
0.0
 10
7.646286076647455
 20
47.83241196178322
 30
0.0
 10
7.646286076647455
 20
47.83241196178322
 30
0.0
 10
7.646286076647455
 20
48.71690577666626
 30
0.0
 10
7.646286076647455
 20
48.71690577666626
 30
0.0
 10
7.646286076647455
 20
48.71690577666626
 30
0.0
 10
7.646286076647455
 20
48.82263575710857
 30
0.0
 10
7.646286076647455
 20
48.82263575710857
 30
0.0
 10
7.646286076647455
 20
48.98941282954952
 30
0.0
 10
7.621619192973067
 20
49.09750270039923
 30
0.0
 10
7.57228542562429
 20
49.14683646774801
 30
0.0
 10
7.522934432798086
 20
49.19615300961936
 30
0.0
 10
7.447727998355082
 20
49.2208543442486
 30
0.0
 10
7.346735024204983
 20
49.2208543442486
 30
0.0
 10
7.241039494717517
 20
49.2208543442486
 30
0.0
 10
7.160527613227229
 20
49.18323390154968
 30
0.0
 10
7.105371634508379
 20
49.10806191806152
 30
0.0
 10
7.050146753879824
 20
49.03285548361852
 30
0.0
 10
7.022551539042973
 20
48.94009628767817
 30
0.0
 10
7.022551539042973
 20
48.82968097737591
 30
0.0
 10
7.022551539042973
 20
48.82968097737591
 30
0.0
 10
7.022551539042973
 20
47.83241196178322
 30
0.0
 10
7.022551539042973
 20
47.83241196178322
 30
0.0
 10
7.022551539042973
 20
47.83241196178322
 30
0.0
 10
6.423483885112878
 20
47.83241196178322
 30
0.0
 10
6.423483885112878
 20
47.83241196178322
 30
0.0
 10
6.423483885112878
 20
47.83241196178322
 30
0.0
 10
6.423483885112878
 20
49.66134425299265
 30
0.0
 10
6.423483885112878
 20
49.66134425299265
 30
0.0
  0
SPLINE
  5
6B
330
1F
100
AcDbEntity
  8
Layer 1
370
     0
100
AcDbSpline
210
0.0
220
0.0
230
1.0
 70
    11
 71
     3
 72
    56
 73
    52
 74
     0
 42
0.0000000001
 43
0.0000000001
 40
0.0
 40
0.0
 40
0.0
 40
0.0
 40
1.0
 40
1.0
 40
1.0
 40
2.0
 40
2.0
 40
2.0
 40
3.0
 40
3.0
 40
3.0
 40
4.0
 40
4.0
 40
4.0
 40
5.0
 40
5.0
 40
5.0
 40
6.0
 40
6.0
 40
6.0
 40
7.0
 40
7.0
 40
7.0
 40
8.0
 40
8.0
 40
8.0
 40
9.0
 40
9.0
 40
9.0
 40
10.0
 40
10.0
 40
10.0
 40
11.0
 40
11.0
 40
11.0
 40
12.0
 40
12.0
 40
12.0
 40
13.0
 40
13.0
 40
13.0
 40
14.0
 40
14.0
 40
14.0
 40
15.0
 40
15.0
 40
15.0
 40
16.0
 40
16.0
 40
16.0
 40
17.0
 40
17.0
 40
17.0
 40
17.0
 10
8.643503415807874
 20
49.66134425299265
 30
0.0
 10
8.643503415807874
 20
49.66134425299265
 30
0.0
 10
9.224932180853488
 20
49.66134425299265
 30
0.0
 10
9.224932180853488
 20
49.66134425299265
 30
0.0
 10
9.224932180853488
 20
49.66134425299265
 30
0.0
 10
9.224932180853488
 20
49.41112696789895
 30
0.0
 10
9.224932180853488
 20
49.41112696789895
 30
0.0
 10
9.281345619424455
 20
49.50274928232917
 30
0.0
 10
9.363528372225089
 20
49.57614704164241
 30
0.0
 10
9.471618243074802
 20
49.63137192227097
 30
0.0
 10
9.579656437492238
 20
49.68654512646725
 30
0.0
 10
9.691260305736906
 20
49.71419201773638
 30
0.0
 10
9.80637817137653
 20
49.71419201773638
 30
0.0
 10
10.07421711987728
 20
49.71419201773638
 30
0.0
 10
10.2509505182706
 20
49.6442565793858
 30
0.0
 10
10.33675062133074
 20
49.50452350650407
 30
0.0
 10
10.42248182248118
 20
49.36472153171263
 30
0.0
 10
10.46537326127254
 20
49.19847844907191
 30
0.0
 10
10.46537326127254
 20
49.00588038596901
 30
0.0
 10
10.46537326127254
 20
49.00588038596901
 30
0.0
 10
10.46537326127254
 20
47.83241196178322
 30
0.0
 10
10.46537326127254
 20
47.83241196178322
 30
0.0
 10
10.46537326127254
 20
47.83241196178322
 30
0.0
 10
9.866288381865024
 20
47.83241196178322
 30
0.0
 10
9.866288381865024
 20
47.83241196178322
 30
0.0
 10
9.866288381865024
 20
47.83241196178322
 30
0.0
 10
9.866288381865024
 20
48.71690577666626
 30
0.0
 10
9.866288381865024
 20
48.71690577666626
 30
0.0
 10
9.866288381865024
 20
48.71690577666626
 30
0.0
 10
9.866288381865024
 20
48.82263575710857
 30
0.0
 10
9.866288381865024
 20
48.82263575710857
 30
0.0
 10
9.866288381865024
 20
48.98941282954952
 30
0.0
 10
9.841638723668062
 20
49.09750270039923
 30
0.0
 10
9.792304956319285
 20
49.14683646774801
 30
0.0
 10
9.74295396349308
 20
49.19615300961936
 30
0.0
 10
9.667747529050077
 20
49.2208543442486
 30
0.0
 10
9.566754554899978
 20
49.2208543442486
 30
0.0
 10
9.461059025412512
 20
49.2208543442486
 30
0.0
 10
9.380547143922223
 20
49.18323390154968
 30
0.0
 10
9.325391165203374
 20
49.10806191806152
 30
0.0
 10
9.270149059097392
 20
49.03285548361852
 30
0.0
 10
9.242571069737968
 20
48.94009628767817
 30
0.0
 10
9.242571069737968
 20
48.82968097737591
 30
0.0
 10
9.242571069737968
 20
48.82968097737591
 30
0.0
 10
9.242571069737968
 20
47.83241196178322
 30
0.0
 10
9.242571069737968
 20
47.83241196178322
 30
0.0
 10
9.242571069737968
 20
47.83241196178322
 30
0.0
 10
8.643503415807874
 20
47.83241196178322
 30
0.0
 10
8.643503415807874
 20
47.83241196178322
 30
0.0
 10
8.643503415807874
 20
47.83241196178322
 30
0.0
 10
8.643503415807874
 20
49.66134425299265
 30
0.0
 10
8.643503415807874
 20
49.66134425299265
 30
0.0
  0
POLYLINE
  5
6C
330
1F
100
AcDbEntity
  8
Layer 1
370
     0
100
AcDb2dPolyline
 66
     1
 10
0.0
 20
0.0
 30
0.0
  0
VERTEX
  5
6D
330
6C
100
AcDbEntity
  8
Layer 1
370
     0
100
AcDbVertex
100
AcDb2dVertex
 10
11.4837434867124
 20
49.89037420085206
 30
0.0
  0
VERTEX
  5
6E
330
6C
100
AcDbEntity
  8
Layer 1
370
     0
100
AcDbVertex
100
AcDb2dVertex
 10
10.88469305825973
 20
49.89037420085206
 30
0.0
  0
VERTEX
  5
6F
330
6C
100
AcDbEntity
  8
Layer 1
370
     0
100
AcDbVertex
100
AcDb2dVertex
 10
10.88469305825973
 20
50.34850299848058
 30
0.0
  0
VERTEX
  5
70
330
6C
100
AcDbEntity
  8
Layer 1
370
     0
100
AcDbVertex
100
AcDb2dVertex
 10
11.4837434867124
 20
50.34850299848058
 30
0.0
  0
VERTEX
  5
71
330
6C
100
AcDbEntity
  8
Layer 1
370
     0
100
AcDbVertex
100
AcDb2dVertex
 10
11.4837434867124
 20
49.89037420085206
 30
0.0
  0
SEQEND
  5
72
330
6C
100
AcDbEntity
  8
Layer 1
370
     0
  0
POLYLINE
  5
73
330
1F
100
AcDbEntity
  8
Layer 1
370
     0
100
AcDb2dPolyline
 66
     1
 10
0.0
 20
0.0
 30
0.0
  0
VERTEX
  5
74
330
73
100
AcDbEntity
  8
Layer 1
370
     0
100
AcDbVertex
100
AcDb2dVertex
 10
10.88469305825973
 20
49.66134425299265
 30
0.0
  0
VERTEX
  5
75
330
73
100
AcDbEntity
  8
Layer 1
370
     0
100
AcDbVertex
100
AcDb2dVertex
 10
11.4837434867124
 20
49.66134425299265
 30
0.0
  0
VERTEX
  5
76
330
73
100
AcDbEntity
  8
Layer 1
370
     0
100
AcDbVertex
100
AcDb2dVertex
 10
11.4837434867124
 20
47.83241196178322
 30
0.0
  0
VERTEX
  5
77
330
73
100
AcDbEntity
  8
Layer 1
370
     0
100
AcDbVertex
100
AcDb2dVertex
 10
10.88469305825973
 20
47.83241196178322
 30
0.0
  0
VERTEX
  5
78
330
73
100
AcDbEntity
  8
Layer 1
370
     0
100
AcDbVertex
100
AcDb2dVertex
 10
10.88469305825973
 20
49.66134425299265
 30
0.0
  0
SEQEND
  5
79
330
73
100
AcDbEntity
  8
Layer 1
370
     0
  0
POLYLINE
  5
7A
330
1F
100
AcDbEntity
  8
Layer 1
370
     0
100
AcDb2dPolyline
 66
     1
 10
0.0
 20
0.0
 30
0.0
  0
VERTEX
  5
7B
330
7A
100
AcDbEntity
  8
Layer 1
370
     0
100
AcDbVertex
100
AcDb2dVertex
 10
4.793350828879787
 20
46.62314899550567
 30
0.0
  0
VERTEX
  5
7C
330
7A
100
AcDbEntity
  8
Layer 1
370
     0
100
AcDbVertex
100
AcDb2dVertex
 10
3.891665987525347
 20
46.62314899550567
 30
0.0
  0
VERTEX
  5
7D
330
7A
100
AcDbEntity
  8
Layer 1
370
     0
100
AcDbVertex
100
AcDb2dVertex
 10
3.891665987525347
 20
44.27786579296699
 30
0.0
  0
VERTEX
  5
7E
330
7A
100
AcDbEntity
  8
Layer 1
370
     0
100
AcDbVertex
100
AcDb2dVertex
 10
3.104254963416644
 20
44.27786579296699
 30
0.0
  0
VERTEX
  5
7F
330
7A
100
AcDbEntity
  8
Layer 1
370
     0
100
AcDbVertex
100
AcDb2dVertex
 10
3.104254963416644
 20
46.62314899550567
 30
0.0
  0
VERTEX
  5
80
330
7A
100
AcDbEntity
  8
Layer 1
370
     0
100
AcDbVertex
100
AcDb2dVertex
 10
2.202552896584778
 20
46.62314899550567
 30
0.0
  0
VERTEX
  5
81
330
7A
100
AcDbEntity
  8
Layer 1
370
     0
100
AcDbVertex
100
AcDb2dVertex
 10
2.202552896584778
 20
47.30048921886064
 30
0.0
  0
VERTEX
  5
82
330
7A
100
AcDbEntity
  8
Layer 1
370
     0
100
AcDbVertex
100
AcDb2dVertex
 10
4.793350828879787
 20
47.30048921886064
 30
0.0
  0
VERTEX
  5
83
330
7A
100
AcDbEntity
  8
Layer 1
370
     0
100
AcDbVertex
100
AcDb2dVertex
 10
4.793350828879787
 20
46.62314899550567
 30
0.0
  0
SEQEND
  5
84
330
7A
100
AcDbEntity
  8
Layer 1
370
     0
  0
SPLINE
  5
85
330
1F
100
AcDbEntity
  8
Layer 1
370
     0
100
AcDbSpline
210
0.0
220
0.0
230
1.0
 70
    11
 71
     3
 72
    41
 73
    37
 74
     0
 42
0.0000000001
 43
0.0000000001
 40
0.0
 40
0.0
 40
0.0
 40
0.0
 40
1.0
 40
1.0
 40
1.0
 40
2.0
 40
2.0
 40
2.0
 40
3.0
 40
3.0
 40
3.0
 40
4.0
 40
4.0
 40
4.0
 40
5.0
 40
5.0
 40
5.0
 40
6.0
 40
6.0
 40
6.0
 40
7.0
 40
7.0
 40
7.0
 40
8.0
 40
8.0
 40
8.0
 40
9.0
 40
9.0
 40
9.0
 40
10.0
 40
10.0
 40
10.0
 40
11.0
 40
11.0
 40
11.0
 40
12.0
 40
12.0
 40
12.0
 40
12.0
 10
5.13625840800413
 20
46.47497543868507
 30
0.0
 10
5.13625840800413
 20
46.47497543868507
 30
0.0
 10
5.834751517638534
 20
46.47497543868507
 30
0.0
 10
5.834751517638534
 20
46.47497543868507
 30
0.0
 10
5.834751517638534
 20
46.47497543868507
 30
0.0
 10
5.834751517638534
 20
46.08974486152444
 30
0.0
 10
5.834751517638534
 20
46.08974486152444
 30
0.0
 10
5.95045504951065
 20
46.37475761101916
 30
0.0
 10
6.173404403838592
 20
46.51729843672137
 30
0.0
 10
6.50361680609979
 20
46.51729843672137
 30
0.0
 10
6.568505179564471
 20
46.51729843672137
 30
0.0
 10
6.624953069090289
 20
46.5116140291707
 30
0.0
 10
6.672943249199819
 20
46.50036579241137
 30
0.0
 10
6.672943249199819
 20
46.50036579241137
 30
0.0
 10
6.672943249199819
 20
45.84421290629068
 30
0.0
 10
6.672943249199819
 20
45.84421290629068
 30
0.0
 10
6.630637476640951
 20
45.85544391757259
 30
0.0
 10
6.585437823874473
 20
45.86536579257012
 30
0.0
 10
6.537499320197222
 20
45.87384072746383
 30
0.0
 10
6.489474689132839
 20
45.88231566235754
 30
0.0
 10
6.442896998172261
 20
45.88653590432698
 30
0.0
 10
6.397800698270341
 20
45.88653590432698
 30
0.0
 10
6.228439804215459
 20
45.88653590432698
 30
0.0
 10
6.095786402555914
 20
45.83573797139697
 30
0.0
 10
5.999857718769133
 20
45.73414210553695
 30
0.0
 10
5.903894584027499
 20
45.63254623967693
 30
0.0
 10
5.855921629395394
 20
45.50978026206005
 30
0.0
 10
5.855921629395394
 20
45.36582694720889
 30
0.0
 10
5.855921629395394
 20
45.36582694720889
 30
0.0
 10
5.855921629395394
 20
44.27786579296699
 30
0.0
 10
5.855921629395394
 20
44.27786579296699
 30
0.0
 10
5.855921629395394
 20
44.27786579296699
 30
0.0
 10
5.13625840800413
 20
44.27786579296699
 30
0.0
 10
5.13625840800413
 20
44.27786579296699
 30
0.0
 10
5.13625840800413
 20
44.27786579296699
 30
0.0
 10
5.13625840800413
 20
46.47497543868507
 30
0.0
 10
5.13625840800413
 20
46.47497543868507
 30
0.0
  0
SPLINE
  5
86
330
1F
100
AcDbEntity
  8
Layer 1
370
     0
100
AcDbSpline
210
0.0
220
0.0
230
1.0
 70
    11
 71
     3
 72
    47
 73
    43
 74
     0
 42
0.0000000001
 43
0.0000000001
 40
0.0
 40
0.0
 40
0.0
 40
0.0
 40
1.0
 40
1.0
 40
1.0
 40
2.0
 40
2.0
 40
2.0
 40
3.0
 40
3.0
 40
3.0
 40
4.0
 40
4.0
 40
4.0
 40
5.0
 40
5.0
 40
5.0
 40
6.0
 40
6.0
 40
6.0
 40
7.0
 40
7.0
 40
7.0
 40
8.0
 40
8.0
 40
8.0
 40
9.0
 40
9.0
 40
9.0
 40
10.0
 40
10.0
 40
10.0
 40
11.0
 40
11.0
 40
11.0
 40
12.0
 40
12.0
 40
12.0
 40
13.0
 40
13.0
 40
13.0
 40
14.0
 40
14.0
 40
14.0
 40
14.0
 10
7.528050399593681
 20
45.20072074607829
 30
0.0
 10
7.528050399593681
 20
45.04832694728826
 30
0.0
 10
7.571372475320698
 20
44.92695623334291
 30
0.0
 10
7.658016626774732
 20
44.83666028067451
 30
0.0
 10
7.744695229183617
 20
44.74631265157384
 30
0.0
 10
7.863551023424737
 20
44.70121635167192
 30
0.0
 10
8.014497882110959
 20
44.70121635167192
 30
0.0
 10
8.106723088251096
 20
44.70121635167192
 30
0.0
 10
8.189198674167978
 20
44.72166299337687
 30
0.0
 10
8.261890188906749
 20
44.76259072774164
 30
0.0
 10
8.33458170364552
 20
44.80348401115155
 30
0.0
 10
8.387687850550646
 20
44.86344589807233
 30
0.0
 10
8.421277531531834
 20
44.94251083945881
 30
0.0
 10
8.421277531531834
 20
44.94251083945881
 30
0.0
 10
9.102872447811087
 20
44.94251083945881
 30
0.0
 10
9.102872447811087
 20
44.94251083945881
 30
0.0
 10
9.040740150734607
 20
44.69975218609068
 30
0.0
 10
8.908792993649538
 20
44.51771334065008
 30
0.0
 10
8.707048202033306
 20
44.39641152861444
 30
0.0
 10
8.505217283029944
 20
44.27507526562393
 30
0.0
 10
8.273121200188664
 20
44.21437268317383
 30
0.0
 10
8.010656600644905
 20
44.21437268317383
 30
0.0
 10
7.646596135241128
 20
44.21437268317383
 30
0.0
 10
7.355141057188992
 20
44.31808728275728
 30
0.0
 10
7.136463621262759
 20
44.52551648192417
 30
0.0
 10
6.91771728342682
 20
44.7329629065685
 30
0.0
 10
6.808404403679843
 20
45.01869912611512
 30
0.0
 10
6.808404403679843
 20
45.38277681699632
 30
0.0
 10
6.808404403679843
 20
45.71574529564571
 30
0.0
 10
6.923350014545203
 20
45.99162854210452
 30
0.0
 10
7.153396265572762
 20
46.21039210541788
 30
0.0
 10
7.38339084016804
 20
46.42908676682154
 30
0.0
 10
7.663528779551132
 20
46.53848577395565
 30
0.0
 10
7.993723956334902
 20
46.53848577395565
 30
0.0
 10
8.36903265849802
 20
46.53848577395565
 30
0.0
 10
8.654114309902443
 20
46.41360106261535
 30
0.0
 10
8.84884833220619
 20
46.16383163993473
 30
0.0
 10
9.043582354509937
 20
45.91406221725412
 30
0.0
 10
9.140957978400523
 20
45.59297931802884
 30
0.0
 10
9.140957978400523
 20
45.20072074607829
 30
0.0
 10
9.140957978400523
 20
45.20072074607829
 30
0.0
 10
7.528050399593681
 20
45.20072074607829
 30
0.0
 10
7.528050399593681
 20
45.20072074607829
 30
0.0
  0
SPLINE
  5
87
330
1F
100
AcDbEntity
  8
Layer 1
370
     0
100
AcDbSpline
210
0.0
220
0.0
230
1.0
 70
    11
 71
     3
 72
    20
 73
    16
 74
     0
 42
0.0000000001
 43
0.0000000001
 40
0.0
 40
0.0
 40
0.0
 40
0.0
 40
1.0
 40
1.0
 40
1.0
 40
2.0
 40
2.0
 40
2.0
 40
3.0
 40
3.0
 40
3.0
 40
4.0
 40
4.0
 40
4.0
 40
5.0
 40
5.0
 40
5.0
 40
5.0
 10
8.421277531531834
 20
45.60291841850378
 30
0.0
 10
8.421277531531834
 20
45.72704520883733
 30
0.0
 10
8.380332571689639
 20
45.83289576762164
 30
0.0
 10
8.298511553914954
 20
45.92040119294698
 30
0.0
 10
8.216638859707993
 20
46.00785494184004
 30
0.0
 10
8.115042993847975
 20
46.05164210545757
 30
0.0
 10
7.993723956334902
 20
46.05164210545757
 30
0.0
 10
7.866737736748592
 20
46.05164210545757
 30
0.0
 10
7.763005911687721
 20
46.01142061566728
 30
0.0
 10
7.682562932107136
 20
45.93099486156412
 30
0.0
 10
7.602154403481405
 20
45.85055188198354
 30
0.0
 10
7.550615775022067
 20
45.74115287484943
 30
0.0
 10
7.528050399593681
 20
45.60291841850378
 30
0.0
 10
7.528050399593681
 20
45.60291841850378
 30
0.0
 10
8.421277531531834
 20
45.60291841850378
 30
0.0
 10
8.421277531531834
 20
45.60291841850378
 30
0.0
  0
SPLINE
  5
88
330
1F
100
AcDbEntity
  8
Layer 1
370
     0
100
AcDbSpline
210
0.0
220
0.0
230
1.0
 70
    11
 71
     3
 72
    47
 73
    43
 74
     0
 42
0.0000000001
 43
0.0000000001
 40
0.0
 40
0.0
 40
0.0
 40
0.0
 40
1.0
 40
1.0
 40
1.0
 40
2.0
 40
2.0
 40
2.0
 40
3.0
 40
3.0
 40
3.0
 40
4.0
 40
4.0
 40
4.0
 40
5.0
 40
5.0
 40
5.0
 40
6.0
 40
6.0
 40
6.0
 40
7.0
 40
7.0
 40
7.0
 40
8.0
 40
8.0
 40
8.0
 40
9.0
 40
9.0
 40
9.0
 40
10.0
 40
10.0
 40
10.0
 40
11.0
 40
11.0
 40
11.0
 40
12.0
 40
12.0
 40
12.0
 40
13.0
 40
13.0
 40
13.0
 40
14.0
 40
14.0
 40
14.0
 40
14.0
 10
10.11461086444183
 20
45.20072074607829
 30
0.0
 10
10.11461086444183
 20
45.04832694728826
 30
0.0
 10
10.15793294016885
 20
44.92695623334291
 30
0.0
 10
10.24457709162288
 20
44.83666028067451
 30
0.0
 10
10.33125569403177
 20
44.74631265157384
 30
0.0
 10
10.45011148827289
 20
44.70121635167192
 30
0.0
 10
10.60105834695911
 20
44.70121635167192
 30
0.0
 10
10.69326632762182
 20
44.70121635167192
 30
0.0
 10
10.7757419135387
 20
44.72166299337687
 30
0.0
 10
10.84843342827747
 20
44.76259072774164
 30
0.0
 10
10.92112494301625
 20
44.80348401115155
 30
0.0
 10
10.9742483153988
 20
44.86344589807233
 30
0.0
 10
11.00783799637998
 20
44.94251083945881
 30
0.0
 10
11.00783799637998
 20
44.94251083945881
 30
0.0
 10
11.68941568718181
 20
44.94251083945881
 30
0.0
 10
11.68941568718181
 20
44.94251083945881
 30
0.0
 10
11.62730061558276
 20
44.69975218609068
 30
0.0
 10
11.49535345849769
 20
44.51771334065008
 30
0.0
 10
11.29360866688146
 20
44.39641152861444
 30
0.0
 10
11.0917777478781
 20
44.27507526562393
 30
0.0
 10
10.85966443955939
 20
44.21437268317383
 30
0.0
 10
10.59721706549306
 20
44.21437268317383
 30
0.0
 10
10.23313937461185
 20
44.21437268317383
 30
0.0
 10
9.941684296559718
 20
44.31808728275728
 30
0.0
 10
9.723006860633484
 20
44.52551648192417
 30
0.0
 10
9.504277748274971
 20
44.7329629065685
 30
0.0
 10
9.394947643050568
 20
45.01869912611512
 30
0.0
 10
9.394947643050568
 20
45.38277681699632
 30
0.0
 10
9.394947643050568
 20
45.71574529564571
 30
0.0
 10
9.509910479393355
 20
45.99162854210452
 30
0.0
 10
9.739956730420912
 20
46.21039210541788
 30
0.0
 10
9.969934079538765
 20
46.42908676682154
 30
0.0
 10
10.25008924439928
 20
46.53848577395565
 30
0.0
 10
10.58026719570563
 20
46.53848577395565
 30
0.0
 10
10.95557589786874
 20
46.53848577395565
 30
0.0
 10
11.24067477475059
 20
46.41360106261535
 30
0.0
 10
11.43540879705434
 20
46.16383163993473
 30
0.0
 10
11.63014281935809
 20
45.91406221725412
 30
0.0
 10
11.72751844324867
 20
45.59297931802884
 30
0.0
 10
11.72751844324867
 20
45.20072074607829
 30
0.0
 10
11.72751844324867
 20
45.20072074607829
 30
0.0
 10
10.11461086444183
 20
45.20072074607829
 30
0.0
 10
10.11461086444183
 20
45.20072074607829
 30
0.0
  0
SPLINE
  5
89
330
1F
100
AcDbEntity
  8
Layer 1
370
     0
100
AcDbSpline
210
0.0
220
0.0
230
1.0
 70
    11
 71
     3
 72
    20
 73
    16
 74
     0
 42
0.0000000001
 43
0.0000000001
 40
0.0
 40
0.0
 40
0.0
 40
0.0
 40
1.0
 40
1.0
 40
1.0
 40
2.0
 40
2.0
 40
2.0
 40
3.0
 40
3.0
 40
3.0
 40
4.0
 40
4.0
 40
4.0
 40
5.0
 40
5.0
 40
5.0
 40
5.0
 10
11.00783799637998
 20
45.60291841850378
 30
0.0
 10
11.00783799637998
 20
45.72704520883733
 30
0.0
 10
10.96689303653779
 20
45.83289576762164
 30
0.0
 10
10.88507201876311
 20
45.92040119294698
 30
0.0
 10
10.80319932455614
 20
46.00785494184004
 30
0.0
 10
10.70160345869613
 20
46.05164210545757
 30
0.0
 10
10.58026719570563
 20
46.05164210545757
 30
0.0
 10
10.45328097611932
 20
46.05164210545757
 30
0.0
 10
10.34956637653587
 20
46.01142061566728
 30
0.0
 10
10.26912339695529
 20
45.93099486156412
 30
0.0
 10
10.18869764285213
 20
45.85055188198354
 30
0.0
 10
10.13717623987022
 20
45.74115287484943
 30
0.0
 10
10.11461086444183
 20
45.60291841850378
 30
0.0
 10
10.11461086444183
 20
45.60291841850378
 30
0.0
 10
11.00783799637998
 20
45.60291841850378
 30
0.0
 10
11.00783799637998
 20
45.60291841850378
 30
0.0
  0
INSERT
  5
8B
330
1F
100
AcDbEntity
  8
Layer 1
100
AcDbBlockReference
  2
block 2
 10
0.0
 20
0.0
 30
0.0
  0
ENDSEC
  0
SECTION
  2
OBJECTS
  0
DICTIONARY
  5
C
330
0
100
AcDbDictionary
281
     1
  3
ACAD_GROUP
350
D
  3
ACAD_LAYOUT
350
1A
  3
ACAD_MLINESTYLE
350
17
  3
ACAD_PLOTSETTINGS
350
19
  3
ACAD_PLOTSTYLENAME
350
E
  3
ACAD_TABLESTYLE
350
196
  3
ACAD_VISUALSTYLE
350
2A
  0
DICTIONARY
  5
D
102
{ACAD_REACTORS
330
C
102
}
330
C
100
AcDbDictionary
281
     1
  0
DICTIONARY
  5
1A
102
{ACAD_REACTORS
330
C
102
}
330
C
100
AcDbDictionary
281
     1
  3
Layout1
350
1E
  3
Layout2
350
26
  3
Model
350
22
  0
DICTIONARY
  5
17
102
{ACAD_REACTORS
330
C
102
}
330
C
100
AcDbDictionary
281
     1
  3
Standard
350
18
  0
DICTIONARY
  5
19
102
{ACAD_REACTORS
330
C
102
}
330
C
100
AcDbDictionary
281
     1
  0
ACDBDICTIONARYWDFLT
  5
E
102
{ACAD_REACTORS
330
C
102
}
330
C
100
AcDbDictionary
281
     1
  3
Normal
350
F
100
AcDbDictionaryWithDefault
340
F
  0
DICTIONARY
  5
196
102
{ACAD_REACTORS
330
C
102
}
330
C
100
AcDbDictionary
281
     1
  0
DICTIONARY
  5
2A
102
{ACAD_REACTORS
330
C
102
}
330
C
100
AcDbDictionary
281
     1
  3
2dWireframe
350
2F
  3
3D Hidden
350
31
  3
3dWireframe
350
30
  3
Basic
350
32
  3
Brighten
350
36
  3
ColorChange
350
3A
  3
Conceptual
350
34
  3
Dim
350
35
  3
Facepattern
350
39
  3
Flat
350
2B
  3
FlatWithEdges
350
2C
  3
Gouraud
350
2D
  3
GouraudWithEdges
350
2E
  3
Linepattern
350
38
  3
Realistic
350
33
  3
Thicken
350
37
  0
LAYOUT
  5
1E
102
{ACAD_REACTORS
330
1A
102
}
330
1A
100
AcDbPlotSettings
  1

  2
none_device
  4

  6

 40
0.0
 41
0.0
 42
0.0
 43
0.0
 44
0.0
 45
0.0
 46
0.0
 47
0.0
 48
0.0
 49
0.0
140
0.0
141
0.0
142
1.0
143
1.0
 70
   688
 72
     0
 73
     0
 74
     5
  7

 75
    16
 76
     0
 77
     2
 78
   300
147
1.0
148
0.0
149
0.0
100
AcDbLayout
  1
Layout1
 70
     1
 71
     1
 10
0.0
 20
0.0
 11
12.0
 21
9.0
 12
0.0
 22
0.0
 32
0.0
 14
1.000000000000000E+20
 24
1.000000000000000E+20
 34
1.000000000000000E+20
 15
-1.000000000000000E+20
 25
-1.000000000000000E+20
 35
-1.000000000000000E+20
146
0.0
 13
0.0
 23
0.0
 33
0.0
 16
1.0
 26
0.0
 36
0.0
 17
0.0
 27
1.0
 37
0.0
 76
     0
330
1B
  0
LAYOUT
  5
26
102
{ACAD_REACTORS
330
1A
102
}
330
1A
100
AcDbPlotSettings
  1

  2
none_device
  4

  6

 40
0.0
 41
0.0
 42
0.0
 43
0.0
 44
0.0
 45
0.0
 46
0.0
 47
0.0
 48
0.0
 49
0.0
140
0.0
141
0.0
142
1.0
143
1.0
 70
   688
 72
     0
 73
     0
 74
     5
  7

 75
    16
 76
     0
 77
     2
 78
   300
147
1.0
148
0.0
149
0.0
100
AcDbLayout
  1
Layout2
 70
     1
 71
     2
 10
0.0
 20
0.0
 11
0.0
 21
0.0
 12
0.0
 22
0.0
 32
0.0
 14
0.0
 24
0.0
 34
0.0
 15
0.0
 25
0.0
 35
0.0
146
0.0
 13
0.0
 23
0.0
 33
0.0
 16
1.0
 26
0.0
 36
0.0
 17
0.0
 27
1.0
 37
0.0
 76
     0
330
23
  0
LAYOUT
  5
22
102
{ACAD_REACTORS
330
1A
102
}
330
1A
100
AcDbPlotSettings
  1

  2
none_device
  4

  6

 40
0.0
 41
0.0
 42
0.0
 43
0.0
 44
0.0
 45
0.0
 46
0.0
 47
0.0
 48
0.0
 49
0.0
140
0.0
141
0.0
142
1.0
143
1.0
 70
  1712
 72
     0
 73
     0
 74
     0
  7

 75
     0
 76
     0
 77
     2
 78
   300
147
1.0
148
0.0
149
0.0
100
AcDbLayout
  1
Model
 70
     1
 71
     0
 10
0.0
 20
0.0
 11
12.0
 21
9.0
 12
0.0
 22
0.0
 32
0.0
 14
1.000000000000000E+20
 24
1.000000000000000E+20
 34
1.000000000000000E+20
 15
-1.000000000000000E+20
 25
-1.000000000000000E+20
 35
-1.000000000000000E+20
146
0.0
 13
0.0
 23
0.0
 33
0.0
 16
1.0
 26
0.0
 36
0.0
 17
0.0
 27
1.0
 37
0.0
 76
     0
330
1F
331
29
  0
MLINESTYLE
  5
18
102
{ACAD_REACTORS
330
17
102
}
330
17
100
AcDbMlineStyle
  2
Standard
 70
     0
  3

 62
   256
 51
90.0
 52
90.0
 71
     2
 49
0.5
 62
   256
  6
BYLAYER
 49
-0.5
 62
   256
  6
BYLAYER
  0
ACDBPLACEHOLDER
  5
F
102
{ACAD_REACTORS
330
E
102
}
330
E
  0
VISUALSTYLE
  5
2F
102
{ACAD_REACTORS
330
2A
102
}
330
2A
100
AcDbVisualStyle
  2
2dWireframe
 70
     4
 71
     0
 72
     2
 73
     0
 90
        0
 40
-0.6
 41
-30.0
 62
     5
 63
     7
421
 16777215
 74
     1
 91
        4
 64
     7
 65
   257
 75
     1
175
     1
 42
1.0
 92
        0
 66
   257
 43
1.0
 76
     1
 77
     6
 78
     2
 67
     7
 79
     5
170
     0
171
     0
290
     0
174
     0
 93
        1
 44
0.0
173
     0
291
     0
 45
0.0
1001
ACAD
1000
AcDbSavedByObjectVersion
1070
     0
  0
VISUALSTYLE
  5
31
102
{ACAD_REACTORS
330
2A
102
}
330
2A
100
AcDbVisualStyle
  2
3D Hidden
 70
     6
 71
     1
 72
     2
 73
     2
 90
        0
 40
-0.6
 41
-30.0
 62
     5
 63
     7
421
 16777215
 74
     2
 91
        2
 64
     7
 65
   257
 75
     2
175
     1
 42
40.0
 92
        0
 66
   257
 43
1.0
 76
     1
 77
     6
 78
     2
 67
     7
 79
     3
170
     0
171
     0
290
     0
174
     0
 93
        1
 44
0.0
173
     0
291
     0
 45
0.0
1001
ACAD
1000
AcDbSavedByObjectVersion
1070
     0
  0
VISUALSTYLE
  5
30
102
{ACAD_REACTORS
330
2A
102
}
330
2A
100
AcDbVisualStyle
  2
3dWireframe
 70
     5
 71
     0
 72
     2
 73
     0
 90
        0
 40
-0.6
 41
-30.0
 62
     5
 63
     7
421
 16777215
 74
     1
 91
        4
 64
     7
 65
   257
 75
     1
175
     1
 42
1.0
 92
        0
 66
   257
 43
1.0
 76
     1
 77
     6
 78
     2
 67
     7
 79
     5
170
     0
171
     0
290
     0
174
     0
 93
        1
 44
0.0
173
     0
291
     0
 45
0.0
1001
ACAD
1000
AcDbSavedByObjectVersion
1070
     0
  0
VISUALSTYLE
  5
32
102
{ACAD_REACTORS
330
2A
102
}
330
2A
100
AcDbVisualStyle
  2
Basic
 70
     7
 71
     1
 72
     0
 73
     1
 90
        0
 40
-0.6
 41
-30.0
 62
     5
 63
     7
421
 16777215
 74
     0
 91
        4
 64
     7
 65
   257
 75
     1
175
     1
 42
1.0
 92
        8
 66
     7
 43
1.0
 76
     1
 77
     6
 78
     2
 67
     7
 79
     5
170
     0
171
     0
290
     0
174
     0
 93
        1
 44
0.0
173
     0
291
     1
 45
0.0
1001
ACAD
1000
AcDbSavedByObjectVersion
1070
     0
  0
VISUALSTYLE
  5
36
102
{ACAD_REACTORS
330
2A
102
}
330
2A
100
AcDbVisualStyle
  2
Brighten
 70
    12
 71
     2
 72
     2
 73
     0
 90
        0
 40
-0.6
 41
-30.0
 62
     5
 63
     7
421
 16777215
 74
     1
 91
        4
 64
     7
 65
   257
 75
     1
175
     1
 42
1.0
 92
        8
 66
     7
 43
1.0
 76
     1
 77
     6
 78
     2
 67
     7
 79
     5
170
     0
171
     0
290
     0
174
     0
 93
        1
 44
50.0
173
     0
291
     1
 45
0.0
1001
ACAD
1000
AcDbSavedByObjectVersion
1070
     0
  0
VISUALSTYLE
  5
3A
102
{ACAD_REACTORS
330
2A
102
}
330
2A
100
AcDbVisualStyle
  2
ColorChange
 70
    16
 71
     2
 72
     2
 73
     3
 90
        0
 40
-0.6
 41
-30.0
 62
     5
 63
     8
421
  8421504
 74
     1
 91
        4
 64
     7
 65
   257
 75
     1
175
     1
 42
1.0
 92
        8
 66
     8
424
  8421504
 43
1.0
 76
     1
 77
     6
 78
     2
 67
     7
 79
     5
170
     0
171
     0
290
     0
174
     0
 93
        1
 44
0.0
173
     0
291
     1
 45
0.0
1001
ACAD
1000
AcDbSavedByObjectVersion
1070
     0
  0
VISUALSTYLE
  5
34
102
{ACAD_REACTORS
330
2A
102
}
330
2A
100
AcDbVisualStyle
  2
Conceptual
 70
     9
 71
     3
 72
     2
 73
     0
 90
        0
 40
-0.6
 41
-30.0
 62
     5
 63
     7
421
 16777215
 74
     2
 91
        2
 64
     7
 65
   257
 75
     1
175
     1
 42
40.0
 92
        8
 66
     7
 43
1.0
 76
     1
 77
     6
 78
     2
 67
     7
 79
     3
170
     0
171
     0
290
     0
174
     0
 93
        1
 44
0.0
173
     0
291
     0
 45
0.0
1001
ACAD
1000
AcDbSavedByObjectVersion
1070
     0
  0
VISUALSTYLE
  5
35
102
{ACAD_REACTORS
330
2A
102
}
330
2A
100
AcDbVisualStyle
  2
Dim
 70
    11
 71
     2
 72
     2
 73
     0
 90
        0
 40
-0.6
 41
-30.0
 62
     5
 63
     7
421
 16777215
 74
     1
 91
        4
 64
     7
 65
   257
 75
     1
175
     1
 42
1.0
 92
        8
 66
     7
 43
1.0
 76
     1
 77
     6
 78
     2
 67
     7
 79
     5
170
     0
171
     0
290
     0
174
     0
 93
        1
 44
-50.0
173
     0
291
     1
 45
0.0
1001
ACAD
1000
AcDbSavedByObjectVersion
1070
     0
  0
VISUALSTYLE
  5
39
102
{ACAD_REACTORS
330
2A
102
}
330
2A
100
AcDbVisualStyle
  2
Facepattern
 70
    15
 71
     2
 72
     2
 73
     0
 90
        0
 40
-0.6
 41
-30.0
 62
     5
 63
     7
421
 16777215
 74
     1
 91
        4
 64
     7
 65
   257
 75
     1
175
     1
 42
1.0
 92
        8
 66
     7
 43
1.0
 76
     1
 77
     6
 78
     2
 67
     7
 79
     5
170
     0
171
     0
290
     0
174
     0
 93
        1
 44
0.0
173
     0
291
     1
 45
0.0
1001
ACAD
1000
AcDbSavedByObjectVersion
1070
     0
  0
VISUALSTYLE
  5
2B
102
{ACAD_REACTORS
330
2A
102
}
330
2A
100
AcDbVisualStyle
  2
Flat
 70
     0
 71
     2
 72
     1
 73
     1
 90
        2
 40
-0.6
 41
30.0
 62
     5
 63
     7
421
 16777215
 74
     0
 91
        4
 64
     7
 65
   257
 75
     1
175
     1
 42
1.0
 92
        8
 66
     7
 43
1.0
 76
     1
 77
     6
 78
     2
 67
     7
 79
     5
170
     0
171
     0
290
     0
174
     0
 93
       13
 44
0.0
173
     0
291
     1
 45
0.0
1001
ACAD
1000
AcDbSavedByObjectVersion
1070
     0
  0
VISUALSTYLE
  5
2C
102
{ACAD_REACTORS
330
2A
102
}
330
2A
100
AcDbVisualStyle
  2
FlatWithEdges
 70
     1
 71
     2
 72
     1
 73
     1
 90
        2
 40
-0.6
 41
30.0
 62
     5
 63
     7
421
 16777215
 74
     1
 91
        4
 64
     7
 65
   257
 75
     1
175
     1
 42
1.0
 92
        0
 66
   257
 43
1.0
 76
     1
 77
     6
 78
     2
 67
     7
 79
     5
170
     0
171
     0
290
     0
174
     0
 93
       13
 44
0.0
173
     0
291
     1
 45
0.0
1001
ACAD
1000
AcDbSavedByObjectVersion
1070
     0
  0
VISUALSTYLE
  5
2D
102
{ACAD_REACTORS
330
2A
102
}
330
2A
100
AcDbVisualStyle
  2
Gouraud
 70
     2
 71
     2
 72
     2
 73
     1
 90
        2
 40
-0.6
 41
30.0
 62
     5
 63
     7
421
 16777215
 74
     0
 91
        4
 64
     7
 65
   257
 75
     1
175
     1
 42
1.0
 92
        0
 66
     7
 43
1.0
 76
     1
 77
     6
 78
     2
 67
     7
 79
     5
170
     0
171
     0
290
     0
174
     0
 93
       13
 44
0.0
173
     0
291
     1
 45
0.0
1001
ACAD
1000
AcDbSavedByObjectVersion
1070
     0
  0
VISUALSTYLE
  5
2E
102
{ACAD_REACTORS
330
2A
102
}
330
2A
100
AcDbVisualStyle
  2
GouraudWithEdges
 70
     3
 71
     2
 72
     2
 73
     1
 90
        2
 40
-0.6
 41
30.0
 62
     5
 63
     7
421
 16777215
 74
     1
 91
        4
 64
     7
 65
   257
 75
     1
175
     1
 42
1.0
 92
        0
 66
   257
 43
1.0
 76
     1
 77
     6
 78
     2
 67
     7
 79
     5
170
     0
171
     0
290
     0
174
     0
 93
       13
 44
0.0
173
     0
291
     1
 45
0.0
1001
ACAD
1000
AcDbSavedByObjectVersion
1070
     0
  0
VISUALSTYLE
  5
38
102
{ACAD_REACTORS
330
2A
102
}
330
2A
100
AcDbVisualStyle
  2
Linepattern
 70
    14
 71
     2
 72
     2
 73
     0
 90
        0
 40
-0.6
 41
-30.0
 62
     5
 63
     7
421
 16777215
 74
     1
 91
        4
 64
     7
 65
   257
 75
     7
175
     7
 42
1.0
 92
        8
 66
     7
 43
1.0
 76
     1
 77
     6
 78
     2
 67
     7
 79
     5
170
     0
171
     0
290
     0
174
     0
 93
        1
 44
0.0
173
     0
291
     1
 45
0.0
1001
ACAD
1000
AcDbSavedByObjectVersion
1070
     0
  0
VISUALSTYLE
  5
33
102
{ACAD_REACTORS
330
2A
102
}
330
2A
100
AcDbVisualStyle
  2
Realistic
 70
     8
 71
     2
 72
     2
 73
     0
 90
        0
 40
-0.6
 41
-30.0
 62
     5
 63
     7
421
 16777215
 74
     1
 91
        0
 64
     7
 65
   257
 75
     1
175
     1
 42
1.0
 92
        8
 66
     8
424
  7895160
 43
1.0
 76
     1
 77
     6
 78
     2
 67
     7
 79
     5
170
     0
171
     0
290
     0
174
     0
 93
       13
 44
0.0
173
     0
291
     0
 45
0.0
1001
ACAD
1000
AcDbSavedByObjectVersion
1070
     0
  0
VISUALSTYLE
  5
37
102
{ACAD_REACTORS
330
2A
102
}
330
2A
100
AcDbVisualStyle
  2
Thicken
 70
    13
 71
     2
 72
     2
 73
     0
 90
        0
 40
-0.6
 41
-30.0
 62
     5
 63
     7
421
 16777215
 74
     1
 91
        4
 64
     7
 65
   257
 75
     1
175
     1
 42
1.0
 92
       12
 66
     7
 43
1.0
 76
     1
 77
     6
 78
     2
 67
     7
 79
     5
170
     0
171
     0
290
     0
174
     0
 93
        1
 44
0.0
173
     0
291
     1
 45
0.0
1001
ACAD
1000
AcDbSavedByObjectVersion
1070
     0
  0
ENDSEC
  0
EOF
